Sayfayı Yazdır | Pencereyi Kapat

Pinhani-Kavak Yelleri Dizi Müziği Nota

Nereden Yazdırıldığı: Gitaristan.Com - Online Gitar Okulu
Kategori: Paylaşım
Forum Adı: Notalar
Forum Tanımlaması: Nota Paylaşımı
URL: http://www.gitaristan.com/club/forum_posts.asp?TID=12138
Tarih: 26-Ekim-2014 Saat 07:56
Program Versiyonu: Web Wiz Forums 8.04 - http://www.webwizforums.com


Konu: Pinhani-Kavak Yelleri Dizi Müziği Nota
Mesajı Yazan: AkTiF
Konu: Pinhani-Kavak Yelleri Dizi Müziği Nota
Mesaj Tarihi: 17-Temmuz-2007 Saat 16:27
     MERHABA SAYIN GİTARİSTAN AİLESİ.GİTAR ÇALMAYI ÖZEL DERS İLE 1 SENE ÖNCE ÖĞRENDİM.SOLO VE AKOR OLARAK ÇALABİLİYORUM.PİNHANİ-KAVAK YELLERİ DİZİ MÜZİĞİNİN AKORLARINI BULDUM.AMA SADECE AKORLA ÇALINCA PEKTE İYİ OLMUYOR.ŞARKI ARASINDA ÇALMAK İÇİN NOTALARINI ARIYORUM.ELİNDE OLAN VARSA VEREBİLİR Mİ?

-------------
"Hayatımı Cennet Elçisi Misali Yaşadım Tatlım" Sago Kaf Kef

Mr.AkTiF



Cevaplar:
Mesajı Yazan: cennet
Mesaj Tarihi: 23-Temmuz-2007 Saat 00:04
ya bende kavak yellerinin müziklerini calmak istiom bilen varsa yardım etsin lütfenn

-------------
HaYaTı İsTeDiĞiN GiBi YaŞa aBiİi


Mesajı Yazan: $€k€
Mesaj Tarihi: 05-Ağustos-2007 Saat 21:12
walla eğer notaları birinde olan wrsa yazsın be kardeşim:D


Mesajı Yazan: Bahadır
Mesaj Tarihi: 05-Ağustos-2007 Saat 23:13
helebi gell
 
b-13-12-10-10---10-10-9-10---10-9--10----12---10----9--10--5    * 2


-------------
http://www.BahadirBekec.com - http://www.BahadirBekec.com


http://www.YalanMakinesi.com - http://www.YalanMakinesi.com


Mesajı Yazan: sserserixgirl
Mesaj Tarihi: 23-Ağustos-2007 Saat 11:58
ARKADAŞLAR BENDE BENİ AL VAR YARDIMCI OLAMIYCAM GALİBA:)


Mesajı Yazan: buki
Mesaj Tarihi: 23-Ağustos-2007 Saat 16:02

http://www.gitaristan.com/akorlar/sanatcigoster.asp?harf=Pinhani -  

http://www.gitaristan.com/akorlar/MailAkor.asp?AkorID=2894 - - - - - - - - -

http://www.gitaristan.com/akorlar/Yazdir.asp?AkorID=2894 - -

İntro: F - Dm - E - Am
 
Am                    Dm
İçinden geleni söyle, kalırsa yazık olur
F                    E
Hayata küsüverirsin, hüzünler seni bulur
Am                    Dm
Bişeyler yapabilirsem güzel gözlerin için
F                      E
Başından geçeni anlat, masaldır benim için
 
F            E              Am
Hele bi gel, uzaklar sana gelir
F                E                 Am
Sen hele bi gel, bütün dertler bitiverir
F               E                Am
Hep seni bulur, uzun zor sıkıcı günler
F           E               Am
Yazık olur, hadi gel kurtar bizi
şimdiden kolay gelsin:)


Mesajı Yazan: AkTiF
Mesaj Tarihi: 23-Ağustos-2007 Saat 16:04
bende akorları var solo olarak notalarını istemiştim ama yinede teşekkürler.

Bide sserserixgirl arkadaşım beni al'ın notalarıda iyi olur verebilirsen sevinirim...


-------------
"Hayatımı Cennet Elçisi Misali Yaşadım Tatlım" Sago Kaf Kef

Mr.AkTiF


Mesajı Yazan: mor ve ötesi
Mesaj Tarihi: 21-Ekim-2007 Saat 12:14
   pinhani=beni al
 
do-si-do/si-do-si-do/si-do-re-do-si-do-sol
do-si-do/si-do-si-do/si-do-re-do-si-do
mi-fa-sol-fa-mi-fa-re
re-mi-fa-mi-re-mi-do
do-re-mi-redo-re-la
la-do-si-la-si-do
 
ben zaten bu notaları bu siteden buldum:)insallah yardım edebilmişimdir :)


-------------
her şey bu vatan için


Mesajı Yazan: guitar36
Mesaj Tarihi: 09-Kasım-2007 Saat 13:46
KAVAK YELLERi - Beni Al
do-si-do/si-do-si-do/si-do-re-do-si-do-sol
do-si-do/si-do-si-do/si-do-re-do-si-do
 
mi-fa-sol-fa-mi-fa-re
re-mi-fa-mi-re-mi-do
do-re-mi-re-do-re-la
la-do-si-la-si-do
 
 
yanlız yarımmış burdan buldum zaten
 
 
 
yardım edebildiysem ne mutlu banaSmile
 
 
 
 
 
sende bana valsın notalarını atabilirmisin
mailto:kezman.alex_1907@hotmail.com - kezman.alex_1907@hotmail.com a mailto:kezman.alex_1907@hotymail.com - }


-------------
alp


Mesajı Yazan: yüxexes
Mesaj Tarihi: 11-Kasım-2007 Saat 16:03
tesekkürler

-------------
ceza bir numara


Mesajı Yazan: tubaa
Mesaj Tarihi: 11-Kasım-2007 Saat 22:16

arkadaslar kac kaclık rıtım kullanmam gerekıyo bu parcada

 



Mesajı Yazan: ekim_yagmuru
Mesaj Tarihi: 27-Kasım-2007 Saat 17:46
ya hele bigel parçasının ritmini bilen var mı bi türlü tutturamıyorum

-------------
tolg@


Mesajı Yazan: KARTAL137
Mesaj Tarihi: 02-Aralık-2007 Saat 11:55
Orjinalini yazan: Bahadır

helebi gell
 
b-13-12-10-10---10-10-9-10---10-9--10----12---10----9--10--5    * 2
 
 
Bu nasıl Oluo arkadşlar nereler e bascam yardım ediin!:(


Mesajı Yazan: kirazkentli
Mesaj Tarihi: 03-Aralık-2007 Saat 21:30
arkadaşlar bu kavak yelleri beni al notalarının son kısmındaki "la
la-do-si-la-si-do"  notaları uymuyor sanki.yoksa benmi yapamıyorum.yardımcı olurmusunuz.notamı sorunlu benmiLOL


Mesajı Yazan: denniz
Mesaj Tarihi: 03-Ocak-2008 Saat 17:11

pinhani beni al  (hocamdan öğrendım notalar dogrudur :) )

mi fa sol fa mi fa re  re mi fa mi re mi do   do re mi do re la re   do do si la si do (sol)     do si do_si do si do   si do re do si do (sol) parantez içindekı sol notaları bırıncı kez caldıgında kullanıosun ıkıncı defe tekrarda sol calınmıo.yardımcı olabılmıssem sewınırım :)


-------------
denniz


Mesajı Yazan: Artemis
Mesaj Tarihi: 03-Ocak-2008 Saat 23:48
verilmisti zaten 


Mesajı Yazan: arabic senfoni
Mesaj Tarihi: 04-Ocak-2008 Saat 13:02
yalnız bu kavak yellerinin son la do si la si do olmuyo eğer gerçekten doğrusunu bilen varsa söyleyebilir mi?   TEŞEKKÜRLERThumbs%20Down

-------------
dark


Mesajı Yazan: selenay001
Mesaj Tarihi: 06-Ocak-2008 Saat 16:33

yaf neden herkes aralıkta yazmış ocaktayız artık zate ben burdan gitar örenme ümidimi kesmek üzreyim ben yurtdışında olduğum için  kursaa fln gidebilmem imkansız gibi bişi internetten öreneyim dedim oda olacak gibi diil gitar sap gibi kaldı elimde Unhappy



Mesajı Yazan: levent_09
Mesaj Tarihi: 10-Ocak-2008 Saat 13:25
benım caldıgım nota bu= sol-fa#-sol-fa#-sol-fa#-sol-fa#-sol-la-sol-fa#-sol-re ıste bu guzel cıkıyor sesı uygun bence  eklemek ve arkadas olmak ısteyen herkes ekleyebılır adım levent msn adresım de  levent_14_@hotmail.com

-------------
levent_09


Mesajı Yazan: cerencikss
Mesaj Tarihi: 11-Ocak-2008 Saat 21:55
teşekkürlerr işe yaradıııLOL

-------------
        cerencikksss


Mesajı Yazan: levent_09
Mesaj Tarihi: 13-Ocak-2008 Saat 13:07
...................
 


-------------
levent_09


Mesajı Yazan: busem57
Mesaj Tarihi: 19-Ocak-2008 Saat 12:59
arkadaslar bana kavak yellerinin notalarını verecek olan bir şahıs varmı (hele bi gel)şarkısıı


Mesajı Yazan: levent_09
Mesaj Tarihi: 20-Ocak-2008 Saat 13:08
beyler alın buda kavak yellerı hele bı gel ama ınce mi telindekı ınce notalarla calın= do si la la lab la lab la si la lab la ben boyle calıorum sanırsam aklımda kalan bu yanlıs olabılır notalarıma bakmam lazım...

-------------
levent_09


Mesajı Yazan: gitaristkağan
Mesaj Tarihi: 22-Şubat-2008 Saat 21:11
ya hepsini bilen yok mu
Confused


-------------
Ne sinema, ne tiyatro, nede İstanbulda bir gece.En büyük eğlence FENERBAHÇE.


Mesajı Yazan: spactears
Mesaj Tarihi: 01-Mart-2008 Saat 14:11

arkadaslar ''beni al'' tab

B  -8-7-8-7-8-7-8-7-8-10-8
G                                   -7

B  -8-7-8-7-8-7-8-7-8-10-8-7-8


B   12-13-15-13-12-13-10---10-12-13-12-10-12-8
     

B   10-12-10-8-5-10-7-7-5-7-8


Mesajı Yazan: murat_e
Mesaj Tarihi: 02-Mart-2008 Saat 01:46
note booka kaydedin düzgün çıkar arkadaslar saniyeleriyle verdim başarılar ...
(by_MURAT eRDEM çELİK)
 
E------------------|------------|---------------|-----------|
B------------------|------------|-----------------|-----------|
G------------------|------------|-----------------|-----------------------|
D-10--10--10--|----7--7--7-|----9--9--9---|--------------|
A-8---8---8------|-x--5--5--5-|-x--7--7--7-|-x-7-7-x-x--|
E------------------|-x----------|-x----------------|-x-5-5-x-x-|

00.11 İntro (2 kere)
E-8-7-5-5v.-|-4-5v.-|-5-4--5--7-5----4-5-|
B-----------|-------|-------------------5|
G-----------|-------|--------------------|
D-----------|-------|--------------------|
A-----------|-------|--------------------|
E-----------|-------|--------------------|

00.17
E-8-7-5-5v.-|-4-5v.-|-5-4--5--7-5---4-5-|
B-----------|-------|-------------------|
G-----------|-------|-------------------|
D-----------|-------|-------------------|
A-----------|-------|-------------------|
E-----------|-------|-------------------|

Sözler
İçinden geleni söyle kalırsa yazık olur

00.57 (4 Tekrar)
E----------------|----------------|---------------------|
B----------------|----------------|---------------------|
G----------------|----------7-----|---------------------|
D10-9--10-9--10-9|7-10-9--10--10-9|7-6--7-6--7-9-7--6-7v|
A----------------|----------------|---------------------|
E----------------|----------------|---------------------|

01.20  Ara intro
E-8-7-5-5v.-|-4-5v.-|-5-4--5--7-5----4-5-|
B-----------|-------|-------------------5|
G-----------|-------|--------------------|
D-----------|-------|--------------------|
A-----------|-------|--------------------|
E-----------|-------|--------------------|

E-8-7-5-5v.-|-4-5v.-|-5-4--5--7-5---4-5-|
B-----------|-------|-------------------|
G-----------|-------|-------------------|
D-----------|-------|-------------------|
A-----------|-------|-------------------|
E-----------|-------|-------------------|

Sözler
İçinden geleni söyle
02.06  (4 Tekrar)
E----------------|----------------|---------------------|
B----------------|----------------|---------------------|
G----------------|----------7-----|---------------------|
D10-9--10-9--10-9|7-10-9--10--10-9|7-6--7-6--7-9-7--6-7v|
A----------------|----------------|---------------------|
E----------------|----------------|---------------------|

02.30
E---------|-------------|-------------|------------------|
B---------|-------------|-------------|------------------|
G2-4-5-4-5|4-5--5-4--5-7|5-4--4-2--1-4|2-----------------|
D---------|-------------|-------------|-2-0s2-0s2-0s2-0s2|
A---------|-------------|-------------|------------------|
E---------|-------------|-------------|------------------|

02.36
E--------------|--------------10|-------------|-----------|
B10-12-13-12-13|12-13-13-12-13--|13-12-12-10-9|12-10------|
G--------------|----------------|-------------|------9-9/0|
D--------------|----------------|-------------|-----------|
A--------------|----------------|-------------|-----------|
E--------------|----------------|-------------|-----------|

02.47
E---------|------------|------------|-----------|---------|
B---8-----|-----8-8----|----8s7-5---|-10-8------|-15v.15v.|
G-9---7v.-|---9-----7-5|--9------7-5|------7-5--|---------|
D---------|-7----------|7-----------|7---------7|7--------|
A---------|------------|------------|-----------|---------|
E---------|------------|------------|-----------|---------|

E----------------------------|
B-15--15s13--13--------------|
G--------------14---12--14---|
D----------------------------|
A----------------------------|
E----------------------------|


-------------
sade


Mesajı Yazan: .:Princess:.
Mesaj Tarihi: 16-Mart-2008 Saat 01:39
Arkadaslar ellerine saglik ben gitara yeni basladimm, paylasimlariniz cok yardimci oldu tskler Smile

-------------
SuSKuNLuGuM aSaLeTiMDiR HeR LaFa VeriLeCeK BiR CeVaBiM VaRDiR aMa,BiR LaFa BaKaRiM LaF Mi DiYe,BiRDe soYLeYeNe BaKaRiM aDaM Mi DiYee ...


Mesajı Yazan: berk_de_souza
Mesaj Tarihi: 18-Mart-2008 Saat 16:32
gitara başlayalı 2 ya da 3 ay oldu ama sizin sayenizde herşeyi çalabiliyorum!!!Big%20smileTongueClap

-------------
GİTARIN KRALI


Mesajı Yazan: gitaristevyu
Mesaj Tarihi: 23-Mart-2008 Saat 17:21
bunlar çok iyi işime yaradı çok saolun:DThumbs%20Up


Mesajı Yazan: sonbahare
Mesaj Tarihi: 23-Mart-2008 Saat 23:04
arkadaşlar merhaba..cesaretin var mı aşka şarkısının notalarını bilen varsa yazabilir mi?teşekkürler şimdiden...


Mesajı Yazan: gitaristkağan
Mesaj Tarihi: 25-Mart-2008 Saat 18:11
yardım için teşekkürler


-------------
Ne sinema, ne tiyatro, nede İstanbulda bir gece.En büyük eğlence FENERBAHÇE.


Mesajı Yazan: berk_de_souza
Mesaj Tarihi: 28-Mart-2008 Saat 16:13
İYKİ DOĞDUN ŞARKISINI BİLEN VAR MI?


-------------
GİTARIN KRALI


Mesajı Yazan: kafadar
Mesaj Tarihi: 04-Nisan-2008 Saat 20:54
hele bi gel in do re mi ... gibi notaları varmı

-------------
Ortala
FB fb FB fb FB
Ortala


Mesajı Yazan: simarik_deli
Mesaj Tarihi: 27-Mayıs-2008 Saat 20:36

arkadaşlar ben bunu kemanla çalıyorum. Bende kemana yeni başladım sayılır. İki ay falan oldu. ama öğretmenimiz TSM öğretiyor. Güzel ama bi yere kadar. Ben farklı şeyler çalarak kendimi geliştirmek istiyorum. Notada bilmiyorum. Sadece la mi fa şeklinde yazarsanız çalabiliyorum. Lütfen bildiğiniz şarkıları bu şekilde yazar mısınız? Bide pinhaninin haftanın sonu şarkısının notaları varsa süper olacak:)



Mesajı Yazan: meraba
Mesaj Tarihi: 31-Mayıs-2008 Saat 16:39
hele bi gelin notaları olan yok muuuuuuuu yaaaaaaaaaaaaaaaaaaaaaaaaaaaaaaaaaaaaaa


Mesajı Yazan: KrKy
Mesaj Tarihi: 06-Haziran-2008 Saat 12:34
Yaa ders almadan gitar çalıyom çok sağolun

-------------
Rock---KrKy---Rock


Mesajı Yazan: kafadar
Mesaj Tarihi: 09-Haziran-2008 Saat 18:53
ya nolur hele bigelin do re mi notaarııııııııııııııııııııııııııııııııııııııııııı

-------------
Ortala
FB fb FB fb FB
Ortala


Mesajı Yazan: fırtına-rock
Mesaj Tarihi: 10-Haziran-2008 Saat 21:26
ben nota olarak bilmiyorum ama sırası ile ince mi telince çalınışını yaza bilirim
 
2-1-2-1-2-1-2-1-2-4-2-1-2-(si telinde2)
bu kadar işinize yara umarım


Mesajı Yazan: nevugre17
Mesaj Tarihi: 20-Haziran-2008 Saat 21:29
arkadaslar bana sorarsanız gitara yeni başlayanlar da var ritmide yazarsanız daha ii olabilir herkese yardımcı olabilecegını dusunuyorum.....

-------------
halil


Mesajı Yazan: meraba
Mesaj Tarihi: 20-Haziran-2008 Saat 21:48
............................ hep aynı şeyleri konuşup duruyosunuz birbirinize aynı notaları gönderip duruyorsunuz farklı notalar bulup göndersenize:):):):


Mesajı Yazan: rock_güseli
Mesaj Tarihi: 06-Temmuz-2008 Saat 11:22
arkadaşlar ben yeniyimde bana helebi gelin notaları lazım bulursanız lütfen gönderir miniz?Stern%20Smile


Mesajı Yazan: fırtına-rock
Mesaj Tarihi: 13-Temmuz-2008 Saat 20:27
ya şu akorları veren arkadaş bide ritmi versen


Mesajı Yazan: z£yNo
Mesaj Tarihi: 22-Temmuz-2008 Saat 15:14
Orjinalini yazan: spactears

arkadaslar ''beni al'' tab

B  -8-7-8-7-8-7-8-7-8-10-8
G                                   -7

B  -8-7-8-7-8-7-8-7-8-10-8-7-8


B   12-13-15-13-12-13-10---10-12-13-12-10-12-8
     

B   10-12-10-8-5-10-7-7-5-7-8


gitara başlayalı bi ay oldu.özel ders almıyorum ama internet sayesnde baya ilerlettim.yalnız tab okumayı bilmiyorum yardımcı olursanız sevinirim


Mesajı Yazan: kenansah
Mesaj Tarihi: 23-Temmuz-2008 Saat 10:49
arkadşalr saolunda normal porte üzerinde gösterirseniz iyi olur tab okumayı bilmeyenler olabilir aramızda..örn ben:)



Mesajı Yazan: pamukşeker
Mesaj Tarihi: 26-Temmuz-2008 Saat 07:45
[QUOTE=rodrigo] işini görürmü bilmem. olmazsa elimde başka bi tane daha var.

e|-------------------|--------------------|
B|-------------------|--------------------|
G|--3-4-3-1-------|--------------------|
D|---------4-3-1--|---3-4-3-1--------|
A|------------------|-----------4-2-1--|
E|------------------|--------------------|


e|------------------|------------------------|
B|------------4-2--|-----2---------------|
G|--3-4-1-3-4----|--3-4---4-3-1-3--|
D|------------------|---------------------|
A|-----------------|----------------------|
E|-----------------|----------------------|


e|---------------------|-------------|
B|---------------------|-------------|
G|-3-4-3-1-------------|-------------|
D|---------4-3-1-1-1/4-|---3-4-3-1---|
A|---------------------|-------------|
E|---------------------|-------------|


e|-----------------------|---------------|
B|-----------------------|---------------|
G|-----------------------|---------------|
D|-1-2-1---------1/4-|-3-1-----------|
A|-------4-2-4-1------|-----4-2-1-2-1-|
E|-----------------------|---------------|


e|---------------------------|---------------------|
B|---------------------------|---------------------|
G|--------------------------|---------------------|
D|-3-3/4-4-4-4-3-4-3-|-------3-4-3-1---1---|
A|--------------------------|-4-2-1---------4---4-|
E|---------------------------|---------------------|


e|-------------------------|---------------|
B|-------------------------|---------------|
G|-------------------------|---------------|
D|-------------1-1-1/4-|-3-1-4---------|
A|-2-2-2-2-1-----------|-------2-1-2-1-|
E|-----------4------------|---------------|

saol kardeşimClap

ama bana notaları lazım biz daha bunları öğrenmedik kkii


-------------
duvardaki asılı diploma insanı insan yapmaya yetmez !!


Mesajı Yazan: nev_21
Mesaj Tarihi: 29-Temmuz-2008 Saat 14:43

kavak yelleri parçasının ritmi aaay bu şekilde isterseniz tüm parçalara uygun ritim mailto:bulurum.papi_culo_10@hotmail.com - bulurum.        papi_culo_10@hotmail.com ekleyin söleyeyim



Mesajı Yazan: çıngırock
Mesaj Tarihi: 02-Kasım-2008 Saat 12:19
yaaaaa kawak yellerini do re seklinde yasamasmısınızz lutfen


Mesajı Yazan: çıngırock
Mesaj Tarihi: 09-Kasım-2008 Saat 11:52

(buralar ince) hele bir gel uzaklar sana gelir sen: do-si-la-la  sol-la  la-sol-la  si-sol-la-mi?

http://www.gitaristan.com/club/smileys/smiley1.gif -

http://www.gitaristan.com/club/smileys/smiley1.gif - - do-si-la-la  sol-la  la-sol-la  si-la-sol-la-mi la

http://www.gitaristan.com/club/smileys/smiley1.gif -

http://www.gitaristan.com/club/smileys/smiley1.gif - - bir şeyler yapabilirsem güzel gözlerin için:

http://www.gitaristan.com/club/smileys/smiley1.gif -

http://www.gitaristan.com/club/smileys/smiley1.gif - - başındn geçeni anlat masaldır benim için :

http://www.gitaristan.com/club/smileys/smiley1.gif -


Mesajı Yazan: shakira
Mesaj Tarihi: 13-Kasım-2008 Saat 18:08

yha beni alın bi kaç kısmı yanlışş doğrusunu yazarmısınızzzz



Mesajı Yazan: çıngırock
Mesaj Tarihi: 14-Kasım-2008 Saat 17:02

Beni al   do si do si do si do si do re do si do sol do si do si do si do si do re do si do  diğer bölümüüü mi fa sol fa mi fa re re mi fa mi re mi do do re mi re do re la la la do si la si do

 



Mesajı Yazan: ADINIMAVİKOYDUM
Mesaj Tarihi: 14-Kasım-2008 Saat 20:17
Orjinalini yazan: spactears

arkadaslar ''beni al'' tab

B  -8-7-8-7-8-7-8-7-8-10-8
G                                   -7

B  -8-7-8-7-8-7-8-7-8-10-8-7-8


B   12-13-15-13-12-13-10---10-12-13-12-10-12-8
     

B   10-12-10-8-5-10-7-7-5-7-8
 bunda yanlışlık yoqmu 


Mesajı Yazan: XoXBigRockXoX
Mesaj Tarihi: 11-Ağustos-2009 Saat 13:04
çok saol gitar36ClapClapSmile

-------------
Rock n Coke


Mesajı Yazan: kedi_kiz
Mesaj Tarihi: 07-Nisan-2010 Saat 21:27
Ben biliyorum arkadaşlar
Pinhani-ßénİ AL
 
 
G---0---------0-----------0------------0-|---0--2--0-------0-------|--0---0-----0----0---|---------0--2-0----0|
D--------4-----------4---------4----------|4-------------4-------2---|----4----4-----4-----|4---------------4--|
 
B--0--1--3--1--0--1----|-------0---1--0---------0-----|
G---------------------2-|--2----------------2-------0--|
 
 
 ßöyLé Devam eDiYor....:)
 
 
 


Mesajı Yazan: gitarist_cat
Mesaj Tarihi: 22-Nisan-2010 Saat 21:56
yha arkadaşlar herkes yanlış yazıo bni al şarkısını lütfen yanlış çalmayın bn kursa gidiyorum we bana öğretmenim notalarını werdi ben şimdi o notaları yazıcam doğru olan notalar bnm yazdığım notalar bazıları hemen   beni al kucağına ... bölümünden başlamış ama bu yanlış yorum da göndericem notaları yanlış çalmanızı istyemiorum arkadaşlar...
 
Kavak yelleri-Beni al
mi fa sol fa mi fa re-re mi fa mi re mi do-do re mi re do re la re do do si la si doo(bekle azcık :D)-mi fa sol fa mi fa re-re mi fa mi re mi do -do re mi re do re la re do do si la si do-do si do-si do si do-si do re do si do sol-do si do-si do si do-si do re do si do.
Doğru olanı budurrr... bu arada mi-fa-sol bölümünden itibaren ince ama do re mi re do re la da la kalın arkadaşlar birazcık müzik kulağı warsa neresi kalın neresi ince anlarsınız...


-------------
CİM BOM BOM A$kı bir bα$kα... Her ηefesтe dαhα dα fαzŁα... Kimse içiη αтmαdı bu kαŁp bir тek sαηα


Mesajı Yazan: gitarist_cat
Mesaj Tarihi: 04-Haziran-2010 Saat 21:27
yardımcı oldum mu acaba???

-------------
CİM BOM BOM A$kı bir bα$kα... Her ηefesтe dαhα dα fαzŁα... Kimse içiη αтmαdı bu kαŁp bir тek sαηα


Mesajı Yazan: qitarist_burak
Mesaj Tarihi: 18-Haziran-2010 Saat 13:23
dTongueğru söylüon mi? kısmı olmuo ve heceler yetmio ltfn bi çare bulun

-------------
bu_rock


Mesajı Yazan: qitarist_burak
Mesaj Tarihi: 18-Haziran-2010 Saat 13:24
doğru sölüon

-------------
bu_rock


Mesajı Yazan: qitarist_burak
Mesaj Tarihi: 18-Haziran-2010 Saat 13:26
çok saçma oluo doğrusunu bilen yazsınStar

-------------
bu_rock


Mesajı Yazan: tylngss
Mesaj Tarihi: 06-Temmuz-2010 Saat 18:41
Orjinalini yazan: denniz

pinhani beni al  (hocamdan öğrendım notalar dogrudur :) )

mi fa sol fa mi fa re  re mi fa mi re mi do   do re mi do re la re   do do si la si do (sol)     do si do_si do si do   si do re do si do (sol) parantez içindekı sol notaları bırıncı kez caldıgında kullanıosun ıkıncı defe tekrarda sol calınmıo.yardımcı olabılmıssem sewınırım :)
valla çaldım tutmuyomuş gibi geldide gitarın akoru yok o yüzden olabilir

-------------
karanlıkta bir gölgeyim yüzümde bir maske beni sadece dünyanın karanlığından koruyacak vücudumu yanlız bırakıp acılarda kavuracak ve ölümümü sağlayacak beni bir uçurumdan bırakıp kaçacak!¸.·°¯°·.¸


Mesajı Yazan: >HaRuN<
Mesaj Tarihi: 23-Temmuz-2010 Saat 09:52

çabalarınızdan dolayı herkese teşekkürler çok saolun WinkSmileClap



-------------
by >HaRuN< ... :)


Mesajı Yazan: Ajankedi
Mesaj Tarihi: 16-Ekim-2010 Saat 17:20
ßende bunu kendim buldum sol fa sol fa sol fa sol mi fa sol fa mi fa ama gerisini çözemedim daha.


Mesajı Yazan: memoli65
Mesaj Tarihi: 07-Mart-2011 Saat 13:52
Arkadaşlar paylaştıklarınız için coook tesekkur ederim çok işime yaradı bu yuzden sizinle solo üsküdara gideriken baylaşmak ıstıyorum
 
 
mi-fa-mi-re-do-si-do-re  mi-fa-mi-re-do-si-la  mi-fa-mi-re-do-si-do-re  mi-mi-mi-miStar
 
mi-fa-mi-re-do-si-do-re  mi-fa-mi-re-do-si-la  si-re-do-si-si-la-la-sol*--la-la-la-la
 
la-mi-mi-mi  fa-mi-fa-sol-mi-mi  re-re-re-do-re  mi-fa-re-mi-do-si-la
 
la-si-do-re  mi-fa-mi-re-do-si-la  si-re-do-si-si-la-sol*-la-si-la
 
 
NOTALARIN HEPSİ DOGRU HOCADAN ÖGRENDİM
(çalarken hızlı çalmanız gerekio 16lık nota ile)


Mesajı Yazan: Guests
Mesaj Tarihi: 02-Haziran-2012 Saat 04:28

http://www.cheapclshoeoutlet.com/ - replica Christian Louboutin

primary genital area, groin, inner thigh, buttock or breast of human being."Kissing and handholding are notably absent from the criminal criminal http://www.cheapclshoeoutlet.com/ - Christian Louboutin Outlet criminal definition of sexual contact.Tennessee's debate over gateway sexual behavior a firestorm of debate and sometimes ridicule.Steven Colbert poked fun fun http://www.topjordanretrosale.com/ - jordan 11 fun at the legislation on his show "The Colbert Report," that "kissing and hugging are just the last stop before before http://www.topjordanretrosale.com/ - cheap jordan shoes before the train pulls into Groin Central Station. We desperately to intervene earlier keep kids from engaging in ... all all http://www.topjordanretrosale.com/ - cheap jordans for sale all the things that lead to the things that lead sex."It's Time to Solve the Student Loan CrisisSolving the Student Student http://www.topjordanretrosale.com/ - cheap jordans for sale Student Loan CrisisColumn by ADAM LEVIN, Credit.comMay 13, 2012 If worried about student loan debt, what it means for graduating graduating http://www.topjordanretrosale.com/ - jordan concord graduating seniors and for the future of our nation, congratulations. means you're paying attention. Now that Americans owe over $1 $1 http://www.topjordanretrosale.com/ - cheap jordan shoes $1 trillion in student debt, more than they owe on credit cards, many people are beginning to see that our our http://www.topjordanretrosale.com/ - cheap jordans for sale our country's current way of paying for college cannot be as I mentioned in this space last week, our leaders leaders http://www.cheapclshoeoutlet.com/ - Christian Louboutin Outlet leaders are not taking the problem seriously. For all the coolness President Obama displayed during his "Slow Jam" on student student http://www.cheapclshoeoutlet.com/ - Christian Louboutin Outlet student loan debt, his call to keep the interest rate federally subsidized Stafford loans at the current 3.4 percent will will http://www.topjordanretrosale.com/ - jordan 11 will not have much of an impact. It's a distraction the looming crisis.Here's the problem, folks: In America right now, now, http://www.topjordanretrosale.com/ - jordan 11 concords now, an entire generation is mortgaging its future. And the that they'll ever succeed in paying off that debt are are

http://www.topjordanretrosale.com/ - cheap jordans for sale




Sayfayı Yazdır | Pencereyi Kapat

Bulletin Board Software by Web Wiz Forums version 8.04 - http://www.webwizforums.com
Copyright ©2001-2006 Web Wiz Guide - http://www.webwizguide.info