www.twitter.com/gitaristancom
  Aktif Konular & ACTIVE TOPICSAktif Konular & ACTIVE TOPICS  Forum Üyelerini GösterÜye Listesi & MEMBERLIST  Takvim & CALENDARTakvim & CALENDAR  Forumu AraArama & SEARCH  Yardım & HELPYardım & HELP  Kayıt Ol & REGISTERKayıt Ol & REGISTER  Giriş & LOGINGiriş & LOGIN
 
  a
 
 

 


Gitaristan AKOR&TAB Arşivi
www.gitaristan.com/akorlar

Gitaristan VideoGitar
www.gitaristan.com/video

Türkçe GuitarPro Arşivi
www.gitaristan.com/guitarpro

Online Gitar Okulu
www.gitaristan.com/okul  

 

 

 

 

Akorlar
 Gitaristan.Com - Online Gitar Okulu - Guitar Forum | Paylaşım | AKORLAR NOTALAR TABLAR RİTMLER REPARTUAR | Akorlar
Mesaj icon Konu: Aradığınız Akor ve Tab Yanıt Yaz Yeni Konu Gönder & Sent New Topic
<< Önceki Sayfa   6 Sonraki >>
Yazar Mesaj
Qz(£w
Yeni Üye
Yeni Üye
Simge

Kayıt Tarihi: 18-Ekim-2006
Konum: İzmir
Gönderilenler: 13

Alıntı Qz(£w Cevaplabullet Gönderim Zamanı: 15-Kasım-2006 Saat 17:05
merhaba ya tab yollayabilir misiniz........???????????*
........(((Qz(£w))).........
IP
YuPi
Yeni Üye
Yeni Üye
Simge

Kayıt Tarihi: 04-Ekim-2006
Konum: Bolu
Gönderilenler: 21

Alıntı YuPi Cevaplabullet Gönderim Zamanı: 15-Kasım-2006 Saat 20:08
Nette dolaşan hoşunuza giden ama kimin söylediğini veya akorlarını bilmediğiniz şarkılar varsa bende mutlaka akorları vardır.. bekliyorum arkadaşlar
İmzam adımdır...
IP
Qz(£w
Yeni Üye
Yeni Üye
Simge

Kayıt Tarihi: 18-Ekim-2006
Konum: İzmir
Gönderilenler: 13

Alıntı Qz(£w Cevaplabullet Gönderim Zamanı: 17-Kasım-2006 Saat 15:33

yupi peki bişi sorucam akora geçmeye korkanlara yardım ediyo musun

eğer cevabın olumlu ise

B@na y@rdıw £d£r  w!s!n?????....*

........(((Qz(£w))).........
IP
YuPi
Yeni Üye
Yeni Üye
Simge

Kayıt Tarihi: 04-Ekim-2006
Konum: Bolu
Gönderilenler: 21

Alıntı YuPi Cevaplabullet Gönderim Zamanı: 17-Kasım-2006 Saat 18:44
nası akora geçmeye korkan anlamadım... ederim tabide tam olarak ne istedigini anlamadım
İmzam adımdır...
IP
Bahadır
Yönetici
Yönetici
Simge

Kayıt Tarihi: 02-Aralık-2005
Gönderilenler: 1306

Alıntı Bahadır Cevaplabullet Gönderim Zamanı: 17-Kasım-2006 Saat 18:59

Dus Sokagi Sakinleri Tablari...

Düş Sokağı Sakinleri al beni yar
İntro

e-----------0--------------0-----------------0---------0---
B---3--------3-----1----------1----0-----------0----------
G--------------------------------------------------2--------
D-----------------------------------------------------------
A--0---------------0---------------0-----------------------
E-----------------------------------------------------------

Rhytm  

V V ^ V V ^ V

Örnek
G           D                Em
V    V     ^    V    V   ^     V

G           D                C
V    V     ^    V    V   ^     V

G           D                Bm
V    V     ^    V    V   ^     V

Bm         D               Em
V    V     ^    V    V   ^     V


Arpej


e------------0---------------------------------------
B----------------0-----------------------------------
G-------0--------------------------------------------
D---------------------------------------------------
A---------------------------------------------------
E--0-------------------------------------------------
Düş Sokağı Sakinleri >ay gözü yaşlı bakare|------------------------------------|
 B|------------------------------------|
 G|---------------2---2---0---4---2----|
 D|---0-2---2-5------------------------|
 A|------------------------------------|
 E|------------------------------------|


 e|------------------------------------|
 B|------------------------------------|
 G|------------------------------------|
 D|---5---4---2---4---4---2---0---2----|
 A|------------------------------------|
 E|------------------------------------|


 e|------------------------------------|
 B|------------------------------------|
 G|---0-----------------------0--------|
 D|-------3---2---2---2---3-------2----|
 A|------------------------------------|
 E|------------------------------------|

 
 e|------------------------------------|
 B|------------------------------------|
 G|-----------0---2---2---0------------|
 D|---2---3-------------------3---2--2-|
 A|------------------------------------|
 E|------------------------------------|


 e|------------------------------------|
 B|---1---0--0---1---3---1--1---0------|
 G|------------------------------------|
 D|------------------------------------|
 A|------------------------------------|
 E|------------------------------------|
Düş Sokağı Sakinleri ayrılık Kapo 3
     Dm                Am
E----------1----1--------------0-----0-------E   |      
B--------3---3----3--------------1-----1-----B   |      
G------2-------2------------2-------2--------G   -> A      
D----0--------------------2------------------D   |      
A-----------------------0--------------------A   |      
E--------------------------------------------E   |      
                                                       
     Dm                Am                              
E----------1h3-1--3------------0-----0-------E         
B--------3-----------------------1-----1-----B          
G------2--------------------2-------2--------G         
D----0--------------------2------------------D         
A-----------------------0--------------------A         
E--------------------------------------------E         
                                                       
     Gm                Bbm                             
E----------1-----1------------1-----1--------E   |      
B------------1-----1------------2-----2------B   |      
G--------4-----4------------3-----3----------G   -> B      
D-------------------------3------------------D   |      
A------5----------------1--------------------A   |      
E----3---------------------------------------E   |      

     Gm                Am
E----------1-----1------------0-----0--------E
B------------1-----1------------1-----1------B
G--------4-----4------------2-----2----------G
D-------------------------2------------------D
A------5----------------0--------------------A
E----3---------------------------------------E

Tekrar A                                                  
 
    Dm                Am                              
E----------1-----3h5-----------0-----0-------E         
B--------3---3--------------------1-----1----B         
G------2-------2-------------2-------2-------G         
D----0--------------------2------------------D         
A-----------------------0--------------------A         
E--------------------------------------------E         

Tekrar B
     Gm                Bbm
E--------------------------------------------E
B----------3------------------2--------------B
G--------4------------------3----------------G
D-------------------------3------------------D
A------5----------------1--------------------A
E----3---------------------------------------E

     Am                Gm
E----------------------------------E
B----------3h5-5--------------3----B
G--------2------------------4------G
D------2---------------------------D
A----0--------------------5--------A
E-----------------------3----------E

     Bbm                Am
E-----------------------------0-----0--------E
B----------2--------------------1-----1------B
G--------3------------------2-----2----------G
D------3------------------2------------------D
A----1------------------0--------------------A
E----------------------------------------0---E
Düş Sokağı Sakinleri ayrılıkKapo 3
     Dm                Am
E----------1----1--------------0-----0-------E   |      
B--------3---3----3--------------1-----1-----B   |      
G------2-------2------------2-------2--------G   -> A      
D----0--------------------2------------------D   |      
A-----------------------0--------------------A   |      
E--------------------------------------------E   |      
                                                       
     Dm                Am                              
E----------1h3-1--3------------0-----0-------E         
B--------3-----------------------1-----1-----B          
G------2--------------------2-------2--------G         
D----0--------------------2------------------D         
A-----------------------0--------------------A         
E--------------------------------------------E         
                                                       
     Gm                Bbm                             
E----------1-----1------------1-----1--------E   |      
B------------1-----1------------2-----2------B   |      
G--------4-----4------------3-----3----------G   -> B      
D-------------------------3------------------D   |      
A------5----------------1--------------------A   |      
E----3---------------------------------------E   |      

     Gm                Am
E----------1-----1------------0-----0--------E
B------------1-----1------------1-----1------B
G--------4-----4------------2-----2----------G
D-------------------------2------------------D
A------5----------------0--------------------A
E----3---------------------------------------E

Tekrar A                                                  
 
    Dm                Am                              
E----------1-----3h5-----------0-----0-------E         
B--------3---3--------------------1-----1----B         
G------2-------2-------------2-------2-------G         
D----0--------------------2------------------D         
A-----------------------0--------------------A         
E--------------------------------------------E         

Tekrar B
     Gm                Bbm
E--------------------------------------------E
B----------3------------------2--------------B
G--------4------------------3----------------G
D-------------------------3------------------D
A------5----------------1--------------------A
E----3---------------------------------------E

     Am                Gm
E----------------------------------E
B----------3h5-5--------------3----B
G--------2------------------4------G
D------2---------------------------D
A----0--------------------5--------A
E-----------------------3----------E

     Bbm                Am
E-----------------------------0-----0--------E
B----------2--------------------1-----1------B
G--------3------------------2-----2----------G
D------3------------------2------------------D
A----1------------------0--------------------A
E----------------------------------------0---EDüş Sokağı Sakinleri ayrılık Kapo 3
     Dm                Am
E----------1----1--------------0-----0-------E   |      
B--------3---3----3--------------1-----1-----B   |      
G------2-------2------------2-------2--------G   -> A      
D----0--------------------2------------------D   |      
A-----------------------0--------------------A   |      
E--------------------------------------------E   |      
                                                       
     Dm                Am                              
E----------1h3-1--3------------0-----0-------E         
B--------3-----------------------1-----1-----B          
G------2--------------------2-------2--------G         
D----0--------------------2------------------D         
A-----------------------0--------------------A         
E--------------------------------------------E         
                                                       
     Gm                Bbm                             
E----------1-----1------------1-----1--------E   |      
B------------1-----1------------2-----2------B   |      
G--------4-----4------------3-----3----------G   -> B      
D-------------------------3------------------D   |      
A------5----------------1--------------------A   |      
E----3---------------------------------------E   |      

     Gm                Am
E----------1-----1------------0-----0--------E
B------------1-----1------------1-----1------B
G--------4-----4------------2-----2----------G
D-------------------------2------------------D
A------5----------------0--------------------A
E----3---------------------------------------E

Tekrar A                                                  
 
    Dm                Am                              
E----------1-----3h5-----------0-----0-------E         
B--------3---3--------------------1-----1----B         
G------2-------2-------------2-------2-------G         
D----0--------------------2------------------D         
A-----------------------0--------------------A         
E--------------------------------------------E         

Tekrar B
     Gm                Bbm
E--------------------------------------------E
B----------3------------------2--------------B
G--------4------------------3----------------G
D-------------------------3------------------D
A------5----------------1--------------------A
E----3---------------------------------------E

     Am                Gm
E----------------------------------E
B----------3h5-5--------------3----B
G--------2------------------4------G
D------2---------------------------D
A----0--------------------5--------A
E-----------------------3----------E

     Bbm                Am
E-----------------------------0-----0--------E
B----------2--------------------1-----1------B
G--------3------------------2-----2----------G
D------3------------------2------------------D
A----1------------------0--------------------A
E----------------------------------------0---E
Düş Sokağı Sakinleri gayret et güzelimintro
E|--------------------------------|--------------------------------|
B|--------------------------------|--------------------------------|
G|--------------------------------|--------------------------------|
D|-11---11-11--11--9-11-9-11-11^12|-9-11-9-------------------------|
A|--------------------------------|--------12-11-12-11-9-7~~9-7^5-7|
E|--------------------------------|--------------------------------|


E|-------------------|-------------------|
B|-------------------|-------------------|
G|-------------------|-------------------|
D|-------------------|-------------------|
A|-7-5-7-5-7-5-7-7^9~|--4-5-7--5---4-----|
E|-------------------|-----------7-------|


E|--------------------------------|---------------------------------|
B|--------------------------------|---------------------------------|
G|--------------------------------|---------------------------------|
D|-11---11-11--11--9-11-9-11-11^12|-9-11-9--------------------------|
A|--------------------------------|--------12-11-12-11-9-7~~-9-7^5-7|
E|--------------------------------|---------------------------------|       


E|--------------------|---------------------|
B|--------------------|---------------------|
G|--------------------|---------------------|
D|--------------------|---------------------|
A|-7-5-7-5-7-5-7-7^-9~|-11--9-7--5--7^5-4~~-|
E|--------------------|---------------------|

 

F#m          Bm        F#m
Gitmem gerek bu şehirden                       
A          C#m     Bm            F#m
Bir rüya oldun sevdamın gergefinde
F#m          Bm        F#m
Neden çocuklar beni gösteriyor
A          C#m     Bm     F#m
Yağmur yağsa güneşin yerine

F#m     Bm   C#m    F#m
Ha gayret güzelim gayret
F#m     Bm   C#m      F#m
Biter elbet bu yağmur sabret

 

F#m           E           Bm           C#m
Sensizlikten olsa gerek çekilmez oldu buralar
F#m       E        Bm         F#m
Hep benle beraber bulamadıklarım
F#m           E           Bm           C#m
Bak cesaretim yok artık geç oldu yorgunum
F#m             E         Bm         F#m
Yine deli oldum sayende saçımda rüzgar

F#m     Bm   C#m    F#m
Ha gayret güzelim gayret
F#m     Bm     C#m    F#m
Biter elbet bu yağmur sabret

 

solo
E|--------------------------------------------------------------------------
B|--------------------------------------------------------------------------
G|----------------------------11--13--13-13-13^14^13~~~~14-16-14-13-14-13-11
D|-11--11-11---11-12-14-12-14-----------------------------------------------
A|--------------------------------------------------------------------------
E|--------------------------------------------------------------------------

--- ----------------------|
--------------------------|
--------------------------|
--12-14-14^16-14-12-11~~~~|
--------------------------|
--------------------------|

 

F#m           E           Bm           C#m
Ayrılıktan olsa gerek gecikiyor sabahlar
F#m        E       Bm        F#m
Hep benle beraber unuttuklarım
F#m           E           Bm      C#m
Dönmüyor epeydir başım denizler yalan
F#m           E           Bm         F#m
Sevmek ateş olurmuş derler yanmak yalan
F#m              Bm          C#m
Şimdi öyle uzak ki geldiğim yollar
E          Bm          Bm          F#m
Yanlış bir öyküdeyim beni yeniden yaz
F#m               Bm          C#m      F#m
Bir çocuktum sevmiştim avuçlarımda aynalar
E         Bm      Bm     F#m
Gayret et güzelim elini uzat

F#m     Bm   C#m    F#m
Ha gayret güzelim gayret
F#m     Bm   C#m    F#m
Biter elbet bu yağmur sabret


E         Bm      Bm     F#m
Gayret et güzelim elini uzat      [Tekrar x defa]     
Düş Sokağı Sakinleri gayret et güzelimGiriş
E|------------------------|--------------------------------|
B|------------------------|--------------------------------|
G|------------------------|--------------------------------|
D|-11-11-11--9-11-9-11-12-|-9-11-9-------------------------|
A|------------------------|--------12-11-12-11-9-7--7-9-5-7|
E|------------------------|--------------------------------
                                                          
E|---------------|-------------------|
B|---------------|-------------------|
G|---------------|-------------------|
D|---------------|-------------------|
A|-5-7-5-7-9--12-|--4-5-7--5--2-4----|
E|---------------|-------------------|
                                                           
E|------------------------|--------------------------------|
B|------------------------|--------------------------------|
G|------------------------|--------------------------------|
D|-11-11-11--9-11-9-11-12-|-9-11-9-------------------------|
A|------------------------|--------12-11-12-11-9-7--7-9-5-7|
E|----------------------------------------------------------
                                                       
E|---------------|--------------------|
B|---------------|--------------------|
G|---------------|--------------------|
D|---------------|--------------------|
A|-5-7-5-7-9--12-|--12-11-9--7-5-4----|
E|---------------|--------------------|
 Gitmem gerek bu şehirden...                       
                                                          
 Ha gayret güzelim gayret
 Biter elbet bu yağmur sabret
|---------------------------|---------------------------|
|---------------------------|---------------------------|
|---------------------------|---------------------------|
|---------------------------|---------------------------|
|--4-5-7-5-4---5---7-9----7-|9-11-9-7---9----4----4-5-7-|
|---------------------------|---------------------------|

|----------------------------|-----------------------------|
|----------------------------|-----------------------------|
|----------------------------|-----------------------------|
|----------------------------|-----------------------------|
|5-4---5----7-9----7-9-11----|12-11--9---------------------|
|----------------------------|-----------------------------|
 Sensizlikten olsa gerek çekilmez oldu buralar...
                                                          
 Ha gayret güzelim gayret
 Biter elbet bu yağmur sabret
|---------------------------|------------------------------|
|2-2--2-3-5-3-5-7-9--9-10-9-|-9-10-12--10-9-9---7-7--3-5-7-|
|---------------------------|------------------------------|
|---------------------------|------------------------------|
|---------------------------|------------------------------|
|---------------------------|------------------------------|
                                                          
|--------------------------------|
|--5-3-2-------------------------|
|--------------------------------|
|--------------------------------|
|--------------------------------|
|--------------------------------|
Ayrılıktan olsa gerek gecikiyor sabahlar...
Düş Sokağı Sakinleri hep böylemi olur    D    Dadd9   Dadd9 D     D    Dadd9  C   Dadd9
 e|-2----0-------0-----2-----2----0------0---0---|
 B|-3----3-------3-----3-----3----3------1---3---|
 G|-2----2-------2-----2-----2----2------0---2---|
 D|-x----0-------0-----x-----x----0------2---0---|
 A|-x----x-------x-----x-----x----x------3---x---|
 E|-x----x-------x-----x-----x----x------x---x---|


    Dadd9                                   
 e|-----------------------------------------|
 B|---3-----3-0-3-0---3---------------------|
 G|-2---2-2---------2---2-2---2-------------|
 D|-------------------------4---4-2-4-2-2-0-|
 A|-----------------------------------------|
 E|-----------------------------------------|

    D
 e|---------2-------|
 B|-------3---3---3-|
 G|-----2-------2---|        G-Bm-C-G-G-D
 D|-0---------------|
 A|-----------------|
 E|-----------------|
Düş Sokağı Sakinleri hüzün kovan kuşuE-----0------------|----0------------|-----0-----------|
B---0---0---0---0--|------0---0------|---2---2---0---0-|
G-2-------2---1----|1h2-----2---1-1--|-2-------2---1---|
D------------------|-----------------|-----------------|
                                                         
                         gözyaşına dök yağmuru   düş uçacak
                         yollar açılıp konuşacak mutlu...
E-----0-----------|------|----------------------|-------
B-------0---0---0-|--0-0-|--5---5------4---4----|-2---2-
G-1h2-----2---1---|1-----|----6----------4------|---2---
D-----------------|------|----------------------|-------
     (x2)
 
bahara doğru
yokluğunu                    gözyaşına dök yağmuru
E----------|------0-----------|--------------------|
B-0---0----|--------0---0---0-|--5---5----4---4----|
G---1------|-1h2-------2---1--|----6--------4------|
D----------|------------------|--------------------|
                  (x2)

düş uçacak bahara doğru yollar açılıp konuşacak
E------0---------------|----------------------|
B--2--------0---0------|-5----5----4---4------|
G----2--------1--------|---6-------- 4--------|
D----------------------|----------------------|

 mutlu
 edeceğim  yokluğunu
E-------0---------|------0-----------|-----0---------------|
B--2--2----0---0--|-------0---0---0--|-------0---0---0-----|
G------------1----|-1h2------2---1---|-1h2-----2---1---1---|
D-----------------|------------------|-------------------2-|
                                             (X2)

huyumdur hep ölürüm            nice aşklara bölünürüm
ayımdır hep tutulurum          nice ışıkla korunurum  
E-----------4--------|-0---0---|---4---0----4---4-----|
B------4^5-----------|---2---2-|-----2--------4---4---|
G--4-----------------|---------|----------------------|
D--------------------|---------|----------------------|

mımm....
E------0-------------|------0-----------------|
B--2--2------0---0---|--------0---0---0-------|
G--------------1-----|-1h2-------2---1---1----|
D--------------------|--------------------2---|
                              (x2)

hüzün kovan kuşu gelmiş gecenin yanağına konuvermiş     
E--0---0---------------|-----0---0--------------------|    
B----2-------4---4-----|-------2-----------4---4------|
G--------------4-------|---------------------4--------|
D----------------------|------------------------------|
                                                          
ay tenli aşık şarkıma   karşılık vermiş               
E--0----------4--------|------------------0-----------|
B------2h4--5----------|---4---4----2--2-------0---0--|
G----------------------|-----4-------------------1----|
D----------------------|------------------------------|

E------0-----------|------0---------------|------0-------|
B--------0---0---0-|--------0---0---0-----|--------0---0-|
G1h2-------2---1---|1h2-------2---1---1---|1h2-------2---|
D------------------|--------------------2-|--------------|
       (x2)


dışım içimden gelir        yani gölgem kendimden
aşktır ölümden güzel olan  bak ve gör yaşam düşlerdedir

huyumdur hep dirilirim     nice dağlardan dökülürüm
ayımdır hep kararırım      nice öpüşle aklanırım

hüzün kovan kuşu gelmiş    gecenin yanağına konuvermiş
ay tenli aşık şarkıma      karşılık vermiş

  karşılık vermiş       karşılık vermiş
E---------0-----------|------0----------|-----------|
B----2--2-------0---0-|-2--2----0-----0-|-0-----0-0-|
G-----------------1---|-----------1h2---|---1h2-----|
D---------------------|-----------------|-----------|
Düş Sokağı Sakinleri hüzün kovan kuşuE-----0----------------0------------------0------------
B---0---0---0---0---------0---0---------2---2---2---0--
G-2-------2---1-----1h2-----2---1-1---1-------1---1----
D------------------------------------------------------

E-----0----------------0------------------------
B-------0---0---0--------0---0---0--------0-0---
G-1h2-----2---1----1h2-----2---1--------1-------
D-----------------------------------------------

  gözyaşına dök   yağmuru   düş uçacak   bahara doğru
  yollar açılıp   konuşacak  mutlu edeceğim  yokluğunu
E-------------------------------------------------
B---5---5--------4---4--------2---2------0---0----
G-----6------------4------------2----------1------
D-------------------------------------------------

E------0-------------------0------------
B--------0---0----0----------0---0----0-
G--1h2-----2----1-----1h2------2----1---
D---------------------------------------

  huyumdur hep  ölürüm             nice aşlara  bölünürüm
E-------0-4-----0----------------------4---4--------------
B---0---------------------4-5p4----------4-------4---4----
G-1---1-----------------6-------6------------------4------
D---------------------------------------------------------

  ayımdır  hep tutulurum              nice ışıkla  korunurum
E--------0-4-----0---------------4-------4---4-------------
B---0----------------------4-5p4-----------4------4---4----
G-1---1------------------6--------------------------4------
D----------------------------------------------------------

 hımm...    mmm...
E------------------------  E------0--------------
B--2---2----0-----0------  B--------0---0----0--- x2
G----2--------1h2--------  G--1h2-----2----1-----
D------------------------  D---------------------


hüzün kovan kuşu gelmiş  gecenin yanağına konuvermiş
E------------------------------------------------
B-5---5-------4---4---------5---5------4---4-----
G---6-----------4-------------6----------4-------
D------------------------------------------------

aytenli aşık  şarkıma     karşılık vermiş
E----------4--------------------------------
B--5---4h5------4---4-------2---2----0---0--
G-----------------4-----------2--------1----
D-------------------------------------------

E-----0------------       E-----0----------
B-------0---0---0--  x3   B-------0--------
G-1h2-----2---1----       G-1h2-----2------
D------------------       D----------------
Düş Sokağı Sakinleri > kan revan içindeyim introİNTRO

e-------------------0--------
B---------------------0------
G-----------------------0----
D---12-10--------------------
A----------------------------
E----------------------------


e-------------------------0------
B---------------------------0----
G------------------------------0-
D--9-10-9-7---7---9-10-----------
A--------------------------------
E--------------------------------


e-------------------------0-------
B----------------------------0----
G------------------------------0--
D-----9-7-9--7-6-6-7-9------------
A---------------------------------
E---------------------------------

 

e------------------------0---------
B----------------------------0-----
G--------------------------------0-
D--7-6/-2-3-2-3-5-3-2--------------
A----------------------------------
E----------------------------------

E                F
Bağışlayın beni  sevdalarım.......
Düş Sokağı Sakinleri sen yine seni seve---------4-|-2---------4-|---------2-|-------------4-|
B-5-4-2-2---|---5p4-2-2---|-4-2-------|-5-4p2--2-2----|
G-----------|-------------|-----4-4---|---------------|

e---------4-|-2---------4-|---------2-|---------------|
B-5-4-2-2---|---5p4-2-2---|-4-2-------|-5-4p2--2------|
G-----------|-------------|-----4-4---|---------------|


zaman unutup beni......   sessiz oluyor............
yürüdüğüm yol..........   konuşamıyor..............
e---------4-|-2---------4-|---------2-|-------------4-|
B-5-4-2-2---|---5p4-2-2---|-4-2-------|-5-4p2--2-2----|(X2)
G-----------|-------------|-----4-4---|---------------|

e|---------4-|---2-5-4p2-|---4-2-----|----------|
B|-4h5-4-5---|-2---------|-4-----5p4-|-2-2-4-5--|
G|-----------|-----------|-----------|----------|

herşey değişir ama....
bedenimde yaşamak.....

solo(akordeon):
e----2h4-2~-|-2------|---2----|------2h4-2~-|-4h5-4~-|
B-5---------|---5p4~-|-5---5~-|-4h5~--------|--------|

e-7-5p4-4~-|-4p2--4-7~-|-5p4-2~-|---2-4p2-4~-|--------|
B----------|-----------|--------|-5----------|-5p4-5~-|

e------2h4--2~-|-4h5-4~-|-7-5p4-4~-|-5p4-2~-|---2-4p2-4~-|
B-4-5~---------|--------|----------|--------|-5----------|

e--------|------2h4--2~-|-4h5-4~-|-4h5-4~-|-7~-|-5p4-5~-|
B-5p4-5~-|-4-5~---------|--------|--------|----|--------|

e-4~--2-----------------2-4-2~--4--5--4~--|
B--------5p4-5~--4--5~--------------------|

sevmek yarı ölmektir....
anlatınca eskir.........

 sen yine.......          çekil yolumdan........
e----4-----2-----2-----4-|---4----2-----4----4--|
B-5-----2-----4-----5----|-5----2----5----5-----|

 sen yine......            ...........ben olayım
e---2-----2------4-----4-|---4----2----------4--|
B-2-----4-----5-----5----|-5----2----5-4-4h5----|

e-----------|---2-5-4p2-|---4-2-----|-------4---|
B-5-4-4h5-4-|-2---------|-4-----5p4-|-5-4-5-----|

e-----2-----|------4-|-----2-----|------4-|
B-4-5---4p2-|5-4-5---|-4-5---4p2-|5-4-5---|

keman solo1:
e----2h4-2~--|-4h5-4-----|---2-----|-----2~--|
B-5~---------|-------4~--|-5---5~--|-4-5-----|

e-4h5-4-----|-----2~--|--------|
B-------2~--|-4-5-----|5p4-2~--|

keman solo2:
e-4~~-----------2--4~--|-4~--7~--5p4h5-|
B------2~~--4h5--------|---------------|

e-7~--9~--4~------|------2-|----------|
B-------------5~--|-5--2---|-5p4--2~--|Düş Sokağı Sakinleri seni tanımayan yok bu şehirdeintro:rhythm bölümü 3 kez ,sonra bass giriyor

rhythm
e---------------------------------------------------
b---------------------------------------------------
g-------0-----------2------------0-----------2------
d---4-----4-----3-----3------4-----4-----3-----3----
a-2---2-----2-3---3-----3--2---2-----2-3---3-----3--
E---------------------------------------------------

bass bölümü
g--------------------------------------------------
d-0-4-2--------------------------------------------
a-------2-3-333-2-----2----------------------------
e-----------------3-1------------------------------

g--------------------------------------------------
d-0-4-2-----7\9-7-5-4------------------------------
a-------2-3-----------2----------------------------
e--------------------------------------------------

g--------------------------------------------------
d-0-4-2--------------------------------------------
a-------2-3-------------2--------------------------
e-----------888-7-5-3-1----------------------------

g--------------------------------------------------
d-0-4-2-----5-4-2----------------------------------
a-------2-3-------2--------------------------------
e--------------------------------------------------

e----------------------------------------------------------
b----------------------------------------------------------
g-------0----------------2---------------0-----------2-----
d---4-----4----------3-----3---------4-----4-----3-----3---
a-2---2----------2-3---3-----3-----2---2-----2-3---3-----3-
e----------------------------------------------------------
   seni tanımayan        yokbuşehirde

   salaşmeyha nedeki     yorgo
  
   kır kahvesindeki      süleyman abi
  
   batakhanedeki         mine

   son ada vapurunun     demir parmaklıkları

   emirgandaki           tahta masa

   bakırköydeki          seyyar satıcı

   yeşilköydeki          dondurmacı
 
   seni tanımayan        yokbuşehirde

solo: (yeter.. den başlıyor ..ayrılırken'de bitiyor)

e--------------------------------------------------------
b--------------------------------------------------------
g-4-5-7---5-7---5-7---5-4---4-5-7---5-7---5-7---5-4------
d--------------------------------------------------------
a--------------------------------------------------------
E--------------------------------------------------------

   yeter................................................

  çekgit güneşimden     yada beni bana bırak
 
  neolur                hiçbirşey beklemem ayrılırken
Düş Sokağı Sakinleri seni tanımayan yok bu şehirdeGIRIS:                
E -----------------|-----------------| )
B -----------------|-----------------| )
G ---------0-------|---------0-------| )  A
D -----4-----4---4-|-----0-----0---0-| )
A -2-----2-----2---|-3-----3-----3---| )
E -----------------|-----------------| )
 

E ---------------|---------------| )
B ---------------|---------------| )
G ---------0-----|---------0-----| )  B
D -----4-----4---|-----0-----0---| )
A -2-----2-----2-|-3-----3-----3-| )
E ---------------|---------------| )
Düş Sokağı Sakinleri veremem sana acımı3-0-----0-----0----0-----0-----0--------
4---4-----4-----4----4-----4-----4------
5-----5-----5----------5-----5----------
    Sözcüklerim                 bulur

3---4-----4----------4-----4------------
4-----5-----5---5------5-----5---5------
5-7-----7-----7----7-----7-----7--------
     aşığın          ateşini

3-----0-----0----------0-----0----------
4---4-----4-----4----4-----4-----4------
5-5-----5-----5----5-----5-----5--------
     Yıkar            gider      beni

3-----0-----0-----
4---4-----4-----4-
5-3-----3-----3---
            ölüm    

3-----0-----0----------0-----0---------
4---4-----4-----4----4-----4-----4-----
5-2-----2-----2----2-----2-----2-------
gibi
           ********   

  Bakışların deler içimdekileri

  Kaldırıp atar beni ceset gibi

           ********


3-----0-----0----------0-----0---------
4---7-----7-----7----5-----5-----5-----
5-5-----5-----5----3-----3-----3-------
        Arayıp bulmak neyi

3-----0-----0----------0-----0---------
4---4-----4-----4----4-----4-----4-----
5-2-----2-----2----2-----2-----2-------
değiştirir     

3-----0-----0----------0-----0---------
4---7-----7-----7----5-----5-----5-----
5-5-----5-----5----3-----3-----3-------
 Karşımda duruyor suretim

3-----0-----0----------0-----0---------
4---4-----4-----4----4-----4-----4-----
5-2-----2-----2----2-----2-----2-------
gülü         bitirir
Düş Sokağı Sakinleri >yaşadıkçaE--------------------------------------------------------
B--------------------------------------------------------
G--------------------------------------------------------
D--9--9-9-10s14--14-14h16-14-12-12--10-9-7-9--9-10s12-12-
A--------------------------------------------------------
E--------------------------------------------------------

E--------------------------------------------------------
B--------------------------------------------------------
G--------------------------------------------------------
D--12---12h10-9-10-9-------------------------------------
A----10--------------------------------------------------
E--------------------------------------------------------

E--------------------------------------------------------
B--------------------------------------------------------
G--------------------------------------------------------
D--9--9-910s14--14-14h16-14-12-12--10-9-7-9--9-10s12-12--
A--------------------------------------------------------
E--------------------------------------------------------

E--------------------------------------------------------
B--------------------------------------------------------
G--------------------------------------------------------
D--12----12s9--9-----------------------------------------
A----10--------------------------------------------------
E--------------------------------------------------------
Düş Sokağı Sakinleri >ölümler 1GİRİŞ
E--------------------|----------------------
B--------------------|----------------------
G------------------0-|----------------------
D-----2-------2------|-----2-------2-----0-- 
A---2---2---2---2----|---2---2---2---2------
E-0-------0------0---|-0-------0------0-----


E----------------------|--------------------|
B----------------------|--------------------|
G----------------------|--------------------|
D----------------------|--------------------|
A--5-5/7~~-10p8-7-8-7~~|5-5/7~~-10p8-7-8-7~~|
E----------------------|--------------------|


E-------------------------|
B-------------------------|
G-------------------------|
D-------------------------|
A-5-5/7-10-8--10-12-12/14-|
E-------------------------|

 1. Ölümler      çıplak       gelir          *Geceyi indirir
 2. Yayılır     nefesin       çiçeklere      *Ay  ışıldar

E-----------------------------------------------------------
B-----------------------------------------------------------
G------------------0---------------------------------------0
D-----2-------2-----------2-------2-----0-----2--------2----
A---2---2---2---2-------2---2---2---2-------2---2---2----2--
E-0-------0------0----0-------0------0-----0------0-------0-

 yavaşça   gözlerine * Benden geçmek kolay    değil..
  soğuk    bedeninde * Günah bana hiç el      değil..

E--------------------|-------------------|------------------
B------------------1-|-------------------|------------------
G-----2-------2------|-----2-------2----0|-----------------0
D---2---2---2---2----|---2---2---2---2---|----2--------2----
A-0-------0------0---|-0-------0------0--|--2---2---2----2--
E--------------------|-------------------|0-------0-------0-

  * Feryat   eder              ateş     sözleri-
  * Feryat   eder              dilim     hüzünle-

E--------------------------------------------------
B------------------3-------------------------------
G----------------2---2---0-----0-------------------
D-----3--------0-------0---------0--------3--------
A---3---3---3----------------2----------3---3------
E-1-------1----------------3-------3--1-------0----

 me
 re

E-----------------------
B-----------------------
G-------------------0---
D-----2--------2--------
A---2---2---2----2------
E-0-------0-------0-----


1.Dönüşten Sonra
E----------------------|--------------------|
B----------------------|--------------------|
G----------------------|--------------------|
D----------------------|--------------------|
A--5-5/7~~-10p8-7-8-7~~|5-5/7~~-10p8-7-8-7~~|
E----------------------|--------------------|


E-------------------------|
B-------------------------|
G-------------------------|
D-------------------------|
A-5-5/7-10-8--10-12-12/14-|
E-------------------------|


2.Dönüşten Sonra
E--------------------|-----------------|
B--------------------|-----------------|
G--------------------|-----------------|
D--------------------|-----------------|
A-7--8--10--10/12~~--|-12/10--10/8--7--|
E--------------------|-----------------|

IP
exxcalibur
Yeni Üye
Yeni Üye


Kayıt Tarihi: 24-Kasım-2006
Konum: Kocaeli
Gönderilenler: 64

Alıntı exxcalibur Cevaplabullet Gönderim Zamanı: 25-Kasım-2006 Saat 20:04
YuPi soner&rüveyda haketmedim seni akorları ve ritmi varmı sende anladığıma göre arşivin geniş...
IP
blackeNed
Yeni Üye
Yeni Üye
Simge

Kayıt Tarihi: 03-Mart-2004
Konum: Malatya
Gönderilenler: 64

Alıntı blackeNed Cevaplabullet Gönderim Zamanı: 25-Kasım-2006 Saat 20:34
Bir şey sorabilir miyim, akorlardaki ritimleri nasıl anlayabiliyoruz?Ben sadece bazılarını anlayabiliyorum.
Bir de söylerken ritimi kaçıran yada ritim yaparken söyleyemenlere(BEN) tavsiyeniz nedir?

Bir de, özel olarak;Sezen Aksu-Gülümse arpej olabilir mi lütfen?
Şimdiden teşekkür ediyorum.
Love is everything, the greatest of joys, the deepest of sorrows...
IP
ZaRdAnAdAm
Yeni Üye
Yeni Üye
Simge

Kayıt Tarihi: 26-Kasım-2006
Gönderilenler: 35

Alıntı ZaRdAnAdAm Cevaplabullet Gönderim Zamanı: 26-Kasım-2006 Saat 14:35
çok teşekkürler sixers
 bu bilgiler çok iyi oldu...
KeNdİmDeN GeRiYe...
IP
ZaRdAnAdAm
Yeni Üye
Yeni Üye
Simge

Kayıt Tarihi: 26-Kasım-2006
Gönderilenler: 35

Alıntı ZaRdAnAdAm Cevaplabullet Gönderim Zamanı: 26-Kasım-2006 Saat 14:42
arkadaşlar Düş sokağı sakinleri(ölümler) tabları burda var fakat bana akorları ve hangi ritim veya arpej ile çalındığı lazım...
bilen varsa lütfen paylaşsın...
KeNdİmDeN GeRiYe...
IP
Qz(£w
Yeni Üye
Yeni Üye
Simge

Kayıt Tarihi: 18-Ekim-2006
Konum: İzmir
Gönderilenler: 13

Alıntı Qz(£w Cevaplabullet Gönderim Zamanı: 29-Kasım-2006 Saat 16:03
ya yupi ben tab olarak biliyorum gitarı
akorlara geçmeye korkuyorum
kısacası çalamıyorum
........(((Qz(£w))).........
IP
cagla9999
Yeni Üye
Yeni Üye
Simge

Kayıt Tarihi: 15-Kasım-2006
Konum: İstanbul
Gönderilenler: 24

Alıntı cagla9999 Cevaplabullet Gönderim Zamanı: 30-Kasım-2006 Saat 15:26
arkadaslar akorlarla basım  belada beceremıyorum parmaklarım isyan etti ama yıne olmuyo bikere ritmini tutturamıyorum melodi çıkmıyo
lutfen bana tab veya nota gonderirmisiniz
 
yardım edın nooooooooooooooooolur
 
 
IP
pinkfloyd_X
Yeni Üye
Yeni Üye
Simge

Kayıt Tarihi: 04-Nisan-2006
Konum: Trabzon
Gönderilenler: 4

Alıntı pinkfloyd_X Cevaplabullet Gönderim Zamanı: 01-Aralık-2006 Saat 03:12
ben şu yeni dizi şarkısı olan kaybolan yılların akorlarini ve de grup türkü yarınımsın parçalarının akorlarını arıyorum arkadaşlar bilen var ise paylaşırsa sevinirim teşekkürler
IP
kirisoglu
Yeni Üye
Yeni Üye
Simge

Kayıt Tarihi: 02-Ocak-2006
Konum: Antalya
Gönderilenler: 10

Alıntı kirisoglu Cevaplabullet Gönderim Zamanı: 01-Aralık-2006 Saat 22:58
Em                 Am        Em
Neler gördüm neler gönül elinden
Em               Am        Em
Ne yaptımsa sana dinletemedim

Am               G              )
Bu yolların sonu hasrete çıkar )
F                           Em ) 2
Çok uğraştım seni döndüremedim )

Am                             )
Yemin etme tutumazsın          )
G                             )
Yüz çevirsen duramazsın        )
F                             )
Bu yerlerden kaçamazsın        ) A x 2
Em        Am G F Em           )
Tek başına yapamazsın          )

Em               Am          Em
Ne kadrin bilinir ne sözün geçer
Em               Am          Em    
Ağlayıp sızlayıp bu ömrün biter

Am                 G              )
Bin kere gelsen şu yalan dünyaya )
F                            Em   ) 2
Ne gonca gül sana ne de laleler   )

TEKRAR A
IP
**melisa**
Yeni Üye
Yeni Üye
Simge

Kayıt Tarihi: 28-Kasım-2006
Konum: Samsun
Gönderilenler: 42

Alıntı **melisa** Cevaplabullet Gönderim Zamanı: 01-Aralık-2006 Saat 23:48
   Aranızda 'Uğurlama' adlı parçanın notalarını bilen varsa yazmasını rica ediyorum.Hatırlayamayan olursa başı şöle başlıyor:bu kente yalnızlık çöktüğü zaman...
Yaşam demek; müzik demek..GİTAR demek....
IP
cagla9999
Yeni Üye
Yeni Üye
Simge

Kayıt Tarihi: 15-Kasım-2006
Konum: İstanbul
Gönderilenler: 24

Alıntı cagla9999 Cevaplabullet Gönderim Zamanı: 02-Aralık-2006 Saat 11:48
bu site bir harika şimdiden bana çok faydası oldu herkese tesekkurlerHeart
arkadaslar gulbenın yalnızlık sarkısının tablarını veya notalarını bılen varsa yazabılırmı lutfen
IP
Bahadır
Yönetici
Yönetici
Simge

Kayıt Tarihi: 02-Aralık-2005
Gönderilenler: 1306

Alıntı Bahadır Cevaplabullet Gönderim Zamanı: 02-Aralık-2006 Saat 12:14
G#-Bb-Cm-Gm-Bb-G# X2


Cm           Gm
Cok kirginim bütün dostlarima
Cm            Gm
Sevgilim seni düsman ettiler bana

Cm            Bb
Bir hata idi, beni secmedin
G#          Gm
Inandin onlara
Cm              Bb
Sihirli sözlere aldandin
G#            Gm
Büyü yaptilar sana

G#  Bb Cm         Gm
Yalnizlik alir götürür
Cm              Bb
Vay beni, yazik bana
G# Bb Cm            Bb          G#         Gm
Eller böyledir, hep ayirir, karisir sevdalara
G# Bb Cm            Bb          G#         Gm    
Eller böyledir, hep ayirir, karisir sevdalara
IP
cagla9999
Yeni Üye
Yeni Üye
Simge

Kayıt Tarihi: 15-Kasım-2006
Konum: İstanbul
Gönderilenler: 24

Alıntı cagla9999 Cevaplabullet Gönderim Zamanı: 02-Aralık-2006 Saat 12:18
harika tesekkurlerTongue
umarım becerebılırım
 
IP
Bahadır
Yönetici
Yönetici
Simge

Kayıt Tarihi: 02-Aralık-2005
Gönderilenler: 1306

Alıntı Bahadır Cevaplabullet Gönderim Zamanı: 02-Aralık-2006 Saat 12:21
IP
kirisoglu
Yeni Üye
Yeni Üye
Simge

Kayıt Tarihi: 02-Ocak-2006
Konum: Antalya
Gönderilenler: 10

Alıntı kirisoglu Cevaplabullet Gönderim Zamanı: 02-Aralık-2006 Saat 16:39
Am                 Em
Bu kente yalnızlık çöktüğü zaman
                   Am
Uykusunda bir kuş ölür ecelsiz
               F
Alıpta başını gitmek istersin
E                           Am
Karanlık sokaklar kör sağır dilsiz

Am               Dm
Ey sevda kuşanıp yollara düşen
                  Am
Bilesin bu sevda dağlar dolanır
                 F
Yare ulaşmadan düşersen eğer
E7                     Am
Yarına sesinin yankısı kalır

Am             Em
Gecenin ucunda gün aralanır
                 Am
Yar sevdası ile bilek bilenir
                  F
Sızılı bir ırmak uğurlar seni
E                    Am
Su olup akarsın kır çiçeklenir
IP
kirisoglu
Yeni Üye
Yeni Üye
Simge

Kayıt Tarihi: 02-Ocak-2006
Konum: Antalya
Gönderilenler: 10

Alıntı kirisoglu Cevaplabullet Gönderim Zamanı: 02-Aralık-2006 Saat 16:41
ugurlamanın orjınalıde boyle melısa

Gm                  F
Bu kente yalnızlık çöktüğü zaman
                   Eb
Uykusunda bir kuş ölür ecelsiz
               Cm
Alıpta başını gitmek istersin
D                 Eb D     Gm
Karanlık sokaklar kör sağır dilsiz

Gm               F
Ey sevda kuşanıp yollara düşen
                  Eb
Bilesin bu sevda dağlar dolanır
                 Cm
Yare ulaşmadan düşersen eğer
D              Eb   D     Gm
Yarına sesinin yankısı kalır

Bb-Am7-Gm-D-Gm
IP
çığlık04
Yeni Üye
Yeni Üye
Simge

Kayıt Tarihi: 17-Eylül-2006
Konum: İstanbul
Gönderilenler: 17

Alıntı çığlık04 Cevaplabullet Gönderim Zamanı: 02-Aralık-2006 Saat 16:55
akorlar fena değil güzell
IP
kirisoglu
Yeni Üye
Yeni Üye
Simge

Kayıt Tarihi: 02-Ocak-2006
Konum: Antalya
Gönderilenler: 10

Alıntı kirisoglu Cevaplabullet Gönderim Zamanı: 02-Aralık-2006 Saat 23:38
Bm                          D                      C
Bunca yil herkesten kaçtin en sonunda buldum sandin
Am                  D           C        Bm
Ansizin içini açtin yapma dedim yaptin gönül

Bm                    D                    C
Gözleri senden uzakti farkedilmez bir tuzakti
Am                   D           C        Bm
Sana böylesi yasakti yapma dedim yaptin gönül

   ( G                         D
   ( O bir yolcu sen bir hanci gördügün en son yalanci
A ( C                             Bm          Am
   ( Içindeki derin sanci gitmez dedim kaldi gönül

   ( D                        C
   ( Sen istedin ben dinledim senden ayri olmaz dedim
B ( Am                      D          C        G
   ( En sonunda ben de sevdim simdi beni kurtar gönül

Bm                      D                    C
Gözlerin bakar da görmez ellerin tutar da bilmez
Am                      D       C        Bm
Gece gündüz farkedilmez demedim mi sana gönül

Bm                    D                     C
Sabahin tam üçündesin dertlerin en gücündesin
Am                   D           C        Bm
Hala onun pesindesin gitme dedim gittin gönül

G                     D
Böylesi sevdigin için bir kördügüm oldu için
C                            Bm        Am
Agliyorsun için için demedim mi sana gönül

TEKRAR B

TEKRAR A

TEKRAR B (3)
IP
kirisoglu
Yeni Üye
Yeni Üye
Simge

Kayıt Tarihi: 02-Ocak-2006
Konum: Antalya
Gönderilenler: 10

Alıntı kirisoglu Cevaplabullet Gönderim Zamanı: 02-Aralık-2006 Saat 23:39
Em                      B7
Bu ilk sonbaharda buluşacaktık
                   Am          Em              
Bahar geldi geçti sen gelmez oldun
Em        D     C      Em
Taşlaramı döndü kalbin gelmedin
Em        D     C      Em           
Aylar geldi geçti sen gelmez oldun

Em            C
Sen gelmez oldun        .
               B7        .
Sen gelmez oldun        .
        C     Em        .
Sen gelmez oldun        .
                         .    A
Em               C     .
Yarim gözlerim yolda    .
          B7             .
Beklerim ama            .
        C     Em        .
Sen gelmez oldun        .

Em                  B7
Demiştin kapına gelirim diye
               Am        Em    
Kulağım kapıda ses vermez oldun
Em        D      C    Em    
Boşyeremi yemin ettik ikimiz
Em          D      C     Am
Kuşlar yuva kurdu sen gelmez oldun
(kuşlar gelip göçtü sen gelmez oldun )


............... A
IP
icehockey barış
Yeni Üye
Yeni Üye
Simge

Kayıt Tarihi: 04-Aralık-2006
Konum: Ankara
Gönderilenler: 4

Alıntı icehockey barış Cevaplabullet Gönderim Zamanı: 04-Aralık-2006 Saat 17:51
Lütfn Bu Akşmın ritmini yzrmsn şimdiden tşkkr edrmBig%20smile
IP
icehockey barış
Yeni Üye
Yeni Üye
Simge

Kayıt Tarihi: 04-Aralık-2006
Konum: Ankara
Gönderilenler: 4

Alıntı icehockey barış Cevaplabullet Gönderim Zamanı: 04-Aralık-2006 Saat 18:14
nie bana kmse cwp atmıyo Cry
tamam gitar çalmayı pek bilmiyorum ama bni ezmynBig%20smile
IP
thebwolf
Yeni Üye
Yeni Üye
Simge

Kayıt Tarihi: 25-Kasım-2006
Konum: Kütahya
Gönderilenler: 15

Alıntı thebwolf Cevaplabullet Gönderim Zamanı: 17-Aralık-2006 Saat 18:35
 haluk levent elfida akor ve tab varsa çok sevinirim bide ritmi
! ! I Am NeVeR AloNe ! !
IP
Bahadır
Yönetici
Yönetici
Simge

Kayıt Tarihi: 02-Aralık-2005
Gönderilenler: 1306

Alıntı Bahadır Cevaplabullet Gönderim Zamanı: 17-Aralık-2006 Saat 18:44
Forumda vardı ara bi zahmet kardeş...
IP
system_of_merwe
Yeni Üye
Yeni Üye
Simge

Kayıt Tarihi: 17-Aralık-2006
Gönderilenler: 8

Alıntı system_of_merwe Cevaplabullet Gönderim Zamanı: 17-Aralık-2006 Saat 19:29
kurban-yalan şarkısının akorları war ama hani şu giriş müziği warya yok yok die söylendii kısım onun akorlarını bulamıom biri bulsa sewinirimWink
IP
Qz(£w
Yeni Üye
Yeni Üye
Simge

Kayıt Tarihi: 18-Ekim-2006
Konum: İzmir
Gönderilenler: 13

Alıntı Qz(£w Cevaplabullet Gönderim Zamanı: 19-Aralık-2006 Saat 17:25
84'ün-sabah olsun
     -kaçalım mı
     -belki bir gün
varsa yollar mısınız
........(((Qz(£w))).........
IP
mellis
Yeni Üye
Yeni Üye
Simge

Kayıt Tarihi: 15-Aralık-2006
Konum: Aydın
Gönderilenler: 1

Alıntı mellis Cevaplabullet Gönderim Zamanı: 29-Aralık-2006 Saat 15:22
mrb candan erçetinin söz vermiştin bana adlı şarkısının akorları ve notaları varmı
IP
müzikolog
Yeni Üye
Yeni Üye
Simge

Kayıt Tarihi: 20-Aralık-2006
Konum: İstanbul
Gönderilenler: 18

Alıntı müzikolog Cevaplabullet Gönderim Zamanı: 29-Aralık-2006 Saat 17:33
 
arkadaşlar siz istein yter kii
öğrenmek için verdiinis çabadan ötürü teşekkürleer...Clap
 
CANDAN ERÇETİN/Söz Vermiştin...
               Dm
Söz vermiştin bana
            C   
Yanıbaşımda yaşlanmaya
                 B
Söz vermiştik bu dünyaya
            A
Ne olursak olsaydık
 
                  Dm
Kaç yıl geçti bak hala
              C
Son bakışın miras bana
              B
Saklı duruyor ne fayda
              A
Bıraksaydın solsaydık
 
                  A
Hangi bahane avutur bilmem
              Dm
Hangi günahın bedeli bu
                    Gm
Kandırmıyor ne gündüzüm ne gecem
               A
Böyle intikam olmaz
 
                  A
Çok mu fazla bu sitem
                   Dm
Ağır değil mi bu ceza
                 Gm
Söyle kim çok gördü seni bana
                  A
Böyle yalnız kalınmaz
 
                Dm
Paylaşılmıyor hüzün
                C
Paylaşamam yolu yok bunun
               B
Anlatamam sözü yok bunun
               A
Çekilecek başa geldikçe dertler
 
              Dm
Bir zaman bir yerde
               C
buluşuruz yolu yok bunun
               B
Kavuşuruz yolu yok bunun
               A
Görülecek günü geldikçe
FoReVeR MuSiC
IP
müzikolog
Yeni Üye
Yeni Üye
Simge

Kayıt Tarihi: 20-Aralık-2006
Konum: İstanbul
Gönderilenler: 18

Alıntı müzikolog Cevaplabullet Gönderim Zamanı: 29-Aralık-2006 Saat 17:35
system_of_merwe bu da sana inş. işine yarar...
 
KURBAN/Yalan Dostum...
 
 G          C
 Bana hiçbirsey söyleme
 G             C
 Ates kül oldu içimde
 G              C
 Büyüttügüm sen zamanla
 G           C
 Yok olup bittin benimle
 
 D              C                          
 Türkü yakip düstün mü yoluma
 D       C                                              
 Adimi andin mi sabah olunca
 D               C                                             
 Ne kaldi senden sonra elimde
 D                 C                     
 Alisirim elbet yokluguna
 
 G     C      D                                                      
 Yalan dostum ask diye birsey yok
 G     C     D                                                 
 Ask dedigin üç günlük eglence
 G         D                                            
 Bilemedin bes gün sürsün
 G       C  D
 Kapilip da sürünen çok
FoReVeR MuSiC
IP
müzikolog
Yeni Üye
Yeni Üye
Simge

Kayıt Tarihi: 20-Aralık-2006
Konum: İstanbul
Gönderilenler: 18

Alıntı müzikolog Cevaplabullet Gönderim Zamanı: 29-Aralık-2006 Saat 17:41
abi biri ölümler istemiş galba buyrun...
 
DÜŞ SOKAĞI SAKİNLERİ/\/\ÖLÜMLER
 
 Em
 Ölümler çıplak gelir
            Am    
 Geceyi indirir yavaşça gözlerine
        Em
 Benden geçmek kolay değil
 F       Dm    G    F-Em
 Feryat eder ateş sözlerime
 
 Em
 Yayılır nefesin çiçeklere
            Am    
 Ay ışıldar soğuk bedeninde
            Em
 Günah bana hiç el değil
 F       Dm    G    F-Em
 Feryat eder dilim hüzünlere
 
 C                Em
 Vedalar doğru değil
       Am    
 Sevgiler yalan değil
                    Em
 Koşarım ben sensizliğe
 C     G
 Bu son bakışsa gitmek
 Am             Em
 Hiç mümkün değil
 
 Em
 Görünür bana senden kalan
                     Am
 Bilirim ki vardır şarkımı duyan
                        Em
 Boşunadır yakarış çizilene
 F       Dm    G    F-Em
 Geçer zaman aşk sevilince
 
 Em
 Ölümler çıplak gelir
                    Am
 Geceyi indirir yavaşça gözlerine
                       Em
 Senden çıkmak kolay değil
 F       Dm    G    F-Em
 Beterdir hayat acılar çekenlere
 
 C               Em
 Vedalar doğru değil
             Am    
 Sevgiler yalan değil
 C                G
 Ağlarım yağmur düşürür seni
 Am              Em
 Kapı açık gir içeri
 
ya yalnız akorlar doğru ama belki bi kaç yerde akor geçişlerinde hata olabilir...
ama nerde geçiş oldugunu kulaktan bulursun zaten...
şimdiden kolay gelsin zevkini çıkar...Tongue
FoReVeR MuSiC
IP
caglar3134
Yeni Üye
Yeni Üye
Simge

Kayıt Tarihi: 30-Aralık-2006
Konum: Ankara
Gönderilenler: 1

Alıntı caglar3134 Cevaplabullet Gönderim Zamanı: 30-Aralık-2006 Saat 11:56
mrb hocam Badem'in Elif isimli bi şarkısı var akorları ve solosu hakkında yardımcı olabilirsen çok sevinirim.teşekkürler
IP
vorsivore
Yeni Üye
Yeni Üye
Simge

Kayıt Tarihi: 06-Aralık-2006
Konum: Edirne
Gönderilenler: 9

Alıntı vorsivore Cevaplabullet Gönderim Zamanı: 31-Aralık-2006 Saat 19:27
MELİH GÖRGÜNÜN ŞARKISINA RİTM OLARAK,''CİVCİV ÇIKACAK KUŞ CIKACAK'' RİTMİNİ KULLANIYORUM,NASIL MI
 
 
AŞAĞI,AŞAĞI,AŞAĞI,YUKARI,AŞAĞI/AŞAĞI,AŞAĞIİ,YUKARI,AŞAĞI,AŞAĞI,YUKARI
 
İÇİNİZDEN( TAM TAM TA PA TAM TAM TA PA TAM TA PA) DEYİN,BİRAZ ZORDUR,AMA ALIŞIRSINIZ
çalmanın cezası var,gitarı çalmayın konuşturun
IP
soon_the_rock
Yeni Üye
Yeni Üye


Kayıt Tarihi: 24-Aralık-2006
Gönderilenler: 1

Alıntı soon_the_rock Cevaplabullet Gönderim Zamanı: 22-Ocak-2007 Saat 22:39
arkadaşlar şu akorları yazarken bide introlarını,solo kısımlarını,ritim ve arpejlerini yazarsanız tam süper olacak
IP
meciless
Yeni Üye
Yeni Üye
Simge

Kayıt Tarihi: 27-Ağustos-2005
Konum: Isparta
Gönderilenler: 4

Alıntı meciless Cevaplabullet Gönderim Zamanı: 08-Şubat-2007 Saat 16:32
slm ben within temptation --a dangerous mind ın akor ve tabını arıyorum yardımcı olabilirmisin acaba?
IP
serkanTrky
Yeni Üye
Yeni Üye
Simge

Kayıt Tarihi: 27-Ağustos-2006
Konum: İstanbul
Gönderilenler: 8

Alıntı serkanTrky Cevaplabullet Gönderim Zamanı: 17-Şubat-2007 Saat 20:34
merhana arkadaşlar Tamer Karan'dan Vursalar Beni
   şarkısının akorlarını bulsanız çok sevinicem
IP
sabian
Yeni Üye
Yeni Üye
Simge

Kayıt Tarihi: 18-Şubat-2007
Konum: Tekirdağ
Gönderilenler: 1

Alıntı sabian Cevaplabullet Gönderim Zamanı: 18-Şubat-2007 Saat 13:24
sixers daha önce bir kullanıcı Fear Of The Dark'ın solo notalarını istemiş ama yollamamışsın. Ya biz konserde onu çalıcaz ama notalar yok gitaristin elinde. Yardımcı olursan çok seviniriz. lütfen...
dreandrummer.!
IP
rüzgar777
Yeni Üye
Yeni Üye
Simge

Kayıt Tarihi: 31-Ocak-2007
Konum: Bolu
Gönderilenler: 8

Alıntı rüzgar777 Cevaplabullet Gönderim Zamanı: 21-Mart-2007 Saat 23:34
arpej yada tablarını ritimini gönderimisin bana
mail adresim
 
IP
Ugurrr
Tecrübeli Üye
Tecrübeli Üye
Simge

Kayıt Tarihi: 10-Ocak-2007
Konum: İstanbul
Gönderilenler: 167

Alıntı Ugurrr Cevaplabullet Gönderim Zamanı: 27-Mart-2007 Saat 15:57
ben Leman Sam-Kıyamam Sana Warsa ii OLur
IP
gitaristancı
Moderatör
Moderatör
Simge

Kayıt Tarihi: 03-Ağustos-2006
Gönderilenler: 666

Alıntı gitaristancı Cevaplabullet Gönderim Zamanı: 27-Mart-2007 Saat 17:37
arkdaşalar bildiğiniz üzre sitemizin artık ''akor - tab'' arşivi avr burda yazılan tüm akorları ve daha fazlasını oradana teğmin etmeniz mümkün eğer biraz araştırma yaparsanız bulacaksınız hade kolay gelsin
SEKOCAN
IP
Hevi
Yeni Üye
Yeni Üye


Kayıt Tarihi: 01-Ağustos-2006
Konum: KahramanMaraş
Gönderilenler: 4

Alıntı Hevi Cevaplabullet Gönderim Zamanı: 30-Mart-2007 Saat 22:58
merhab
melon şapka (eren-okan)uyan nolur uyan parçasının akor ve tabını arıyorum.acilen.bana yarımcı olabilireniz çok sevinirim şimdiden teşekür ederim...
IP
rüzgar777
Yeni Üye
Yeni Üye
Simge

Kayıt Tarihi: 31-Ocak-2007
Konum: Bolu
Gönderilenler: 8

Alıntı rüzgar777 Cevaplabullet Gönderim Zamanı: 16-Nisan-2007 Saat 19:48

maketmedim sarkısının ritimini göderirmisin

ok
 
IP
of be
Tecrübeli Üye
Tecrübeli Üye
Simge

Kayıt Tarihi: 09-Mayıs-2007
Konum: İstanbul
Gönderilenler: 167

Alıntı of be Cevaplabullet Gönderim Zamanı: 09-Mayıs-2007 Saat 16:51
meraba arkadaşlar    ben aranızda yeniyimEmbarrassed
 
çok mutluyum duygularımı anlatamıyorum
 
 bu yüzden bana istedigim bi şarkı var bulabilir misiniz?
 
 içimdeki sesi duyurmam lazım Approve 
 
  lonely day-system. .. akor tab hangisi olursa fark etmez
 
yeterki  bulun
 
teşekkürlerrr. . .. .Embarrassed
 
 
OuchThumbs%20UpBig%20smile
IP
ansaneriguri
Yeni Üye
Yeni Üye
Simge

Kayıt Tarihi: 18-Ocak-2007
Konum: İstanbul
Gönderilenler: 23

Alıntı ansaneriguri Cevaplabullet Gönderim Zamanı: 10-Mayıs-2007 Saat 09:20
ben kazım koyuncunun gelevera deresi adlı parçasının tabını çıkarmaya çalıştım ama çok ta iyi olmadı.sen çıkartabilirsen çok sevinirim.
senin evin yağmura yakın olsun...
IP
of be
Tecrübeli Üye
Tecrübeli Üye
Simge

Kayıt Tarihi: 09-Mayıs-2007
Konum: İstanbul
Gönderilenler: 167

Alıntı of be Cevaplabullet Gönderim Zamanı: 10-Mayıs-2007 Saat 16:11
lonely day akorlar yokmu ama amaa
Cry
IP
serseri gogo
Yeni Üye
Yeni Üye
Simge

Kayıt Tarihi: 20-Nisan-2007
Konum: Kocaeli
Gönderilenler: 5

Alıntı serseri gogo Cevaplabullet Gönderim Zamanı: 11-Mayıs-2007 Saat 09:53
ya M.İlker kardeş ben henüz iyi gitar çalamıyorum sadece normal akor basabiliyorum bareleri nasıl öğrencem bide şarkıların akorlarını yazmışsında ben çalamıyorum ya nerde nasıl geçiş yapcam bilmiyorum yardım et.....Cry hangi alpej yapılcak....bilmiyorum...
Sempatik Çapkın
IP
of be
Tecrübeli Üye
Tecrübeli Üye
Simge

Kayıt Tarihi: 09-Mayıs-2007
Konum: İstanbul
Gönderilenler: 167

Alıntı of be Cevaplabullet Gönderim Zamanı: 11-Mayıs-2007 Saat 16:30

ilker abicigim izninle arkadasın sorusuna yanıt olmak istiyorumEmbarrassed

Ying%20Yang  çok geniş kapsamlı bi soru bu öncelikle çalışmak lazım tabi dogru kaynaklardan ve  birazcık da sakin olmalısın ARPEJlere tabeWink
IP
Ugurrr
Tecrübeli Üye
Tecrübeli Üye
Simge

Kayıt Tarihi: 10-Ocak-2007
Konum: İstanbul
Gönderilenler: 167

Alıntı Ugurrr Cevaplabullet Gönderim Zamanı: 22-Mayıs-2007 Saat 20:43
bi hocaya gitmende fayda war serseri gogo
Muzik yapiyoruz, bununda bir sebebi var. Bunun bir tarihi var, bunun bir yazisi var.Eger bu isi yapmak istiyorsanz mumkun mertebe enkisa zamanda o tarihi,o edebiyati,o yaziyi ogrenin.
IP
<< Önceki Sayfa   6 Sonraki >>
Yanıt Yaz Yeni Konu Gönder & Sent New Topic
Konuyu Yazdır Konuyu Yazdır

Forum Atla
Kapalı Foruma Yeni Konu Gönderme
Kapalı Forumdaki Konulara Cevap Yazma
Kapalı Forumda Cevapları Silme
Kapalı Forumdaki Cevapları Düzenleme
Kapalı Forumda Anket Açma
Kapalı Forumda Anketlerde Oy Kullanma

Bulletin Board Software by Web Wiz Forums version 8.04
Copyright ©2001-2006 Web Wiz Guide