www.twitter.com/gitaristancom
  Aktif Konular & ACTIVE TOPICSAktif Konular & ACTIVE TOPICS  Forum Üyelerini GösterÜye Listesi & MEMBERLIST  Takvim & CALENDARTakvim & CALENDAR  Forumu AraArama & SEARCH  Yardım & HELPYardım & HELP  Kayıt Ol & REGISTERKayıt Ol & REGISTER  Giriş & LOGINGiriş & LOGIN
 
  a
 
 

 


Gitaristan AKOR&TAB Arşivi
www.gitaristan.com/akorlar

Gitaristan VideoGitar
www.gitaristan.com/video

Türkçe GuitarPro Arşivi
www.gitaristan.com/guitarpro

Online Gitar Okulu
www.gitaristan.com/okul  

 

 

 

 

Akorlar
 Gitaristan.Com - Online Gitar Okulu - Guitar Forum | Paylaşım | AKORLAR NOTALAR TABLAR RİTMLER REPARTUAR | Akorlar
Mesaj icon Konu: Aradığınız Akor ve Tab Yanıt Yaz Yeni Konu Gönder & Sent New Topic
<< Önceki Sayfa   6
Yazar Mesaj
of be
Tecrübeli Üye
Tecrübeli Üye
Simge

Kayıt Tarihi: 09-Mayıs-2007
Konum: İstanbul
Gönderilenler: 167

Alıntı of be Cevaplabullet Gönderim Zamanı: 23-Mayıs-2007 Saat 15:31
Star
    hustle n bustle. . .
IP
kungfu_j
Yeni Üye
Yeni Üye
Simge

Kayıt Tarihi: 06-Mayıs-2007
Konum: Konya
Gönderilenler: 65

Alıntı kungfu_j Cevaplabullet Gönderim Zamanı: 23-Mayıs-2007 Saat 17:22
arakadaşlar akorlar için çok saolunda ben yeniyim ritimleri bilmiyorum yani altın yazsanız örn aayyay gibiSmile
IP
of be
Tecrübeli Üye
Tecrübeli Üye
Simge

Kayıt Tarihi: 09-Mayıs-2007
Konum: İstanbul
Gönderilenler: 167

Alıntı of be Cevaplabullet Gönderim Zamanı: 24-Mayıs-2007 Saat 15:09
ayyay mıSmilegüzel. ..
    hustle n bustle. . .
IP
gitarci_80
Yeni Üye
Yeni Üye
Simge

Kayıt Tarihi: 24-Mayıs-2007
Konum: Osmaniye
Gönderilenler: 16

Alıntı gitarci_80 Cevaplabullet Gönderim Zamanı: 02-Haziran-2007 Saat 13:02
işte soner arıca nın parçası benden olsun:d
 
 

Beni Bırakma

Beni Bırakma  Soner Arıca

Em        Am      F        G
Git hadi git ciğerim yanıyor
F        G           F       Em
Son gece bu beni sevsen ne olur
Em       Am       F        G
Kim saracak beni kim sevecek
F        G       F       Em
Dur dokunma yüreğim acıyor

Am          G           F           Am
Sevme beni sevdalardan vurgunlar yedim
Am        G             F          Am
Bana çok gördüğün aşkı sen ellere ver
Am         G             F         Am
Terk edilişim ilk değil alışır gönlüm
Am          G            F         Em
Sevilmeden sevmek var ya o daha beter  }2

Am           G              }
Hadi beni öldür beni unut   }
F              G            }
Hadi beni göm yalnızlığa    }   2
Am           G              }
Hadi bana hepsi yalan de    }
F        Em                 }
Beni bırakma                }


TEKRAR


                   kolay gelsin
Ergin
IP
duslerveotesi
Yeni Üye
Yeni Üye
Simge

Kayıt Tarihi: 16-Mayıs-2007
Konum: Giresun
Gönderilenler: 3

Alıntı duslerveotesi Cevaplabullet Gönderim Zamanı: 02-Haziran-2007 Saat 18:35

koridor harac mezat tab ve akoru

wqsaq
IP
ANGEL1753
Yeni Üye
Yeni Üye
Simge

Kayıt Tarihi: 02-Mayıs-2007
Gönderilenler: 1

Alıntı ANGEL1753 Cevaplabullet Gönderim Zamanı: 07-Haziran-2007 Saat 10:40
mor ve ötesi yaz yaz şarkısnın aşaığı yukarı şeklinde ritmini bilen var mı?
IP
merttt
Yeni Üye
Yeni Üye
Simge

Kayıt Tarihi: 20-Aralık-2005
Konum: Ankara
Gönderilenler: 12

Alıntı merttt Cevaplabullet Gönderim Zamanı: 10-Haziran-2007 Saat 13:55
arkadaşlar acil olarak pentagram - bu alemi gören sensin akorlarını yazar mısınız??warsa tablarını da istiyorum..lütfen
IP
semihd10
Yeni Üye
Yeni Üye
Simge

Kayıt Tarihi: 16-Aralık-2006
Konum: İstanbul
Gönderilenler: 7

Alıntı semihd10 Cevaplabullet Gönderim Zamanı: 11-Haziran-2007 Saat 13:58
ya arkadaşlar bana acil Am-Em-E-Dm-C-G akorlarının olduğu kolay çalımlı bir parça lazım ...
 
Not - Ritmide söylerseniz sevinirim..
IP
Cih@n
Yeni Üye
Yeni Üye


Kayıt Tarihi: 04-Ekim-2005
Konum: Ülke dışı
Gönderilenler: 3

Alıntı Cih@n Cevaplabullet Gönderim Zamanı: 12-Haziran-2007 Saat 19:19
Bana Sezen sarkilarinin TABlarini bulabilirseniz cok sevinirim.
IP
garrfield__9
Yeni Üye
Yeni Üye
Simge

Kayıt Tarihi: 09-Haziran-2007
Konum: İzmir
Gönderilenler: 2

Alıntı garrfield__9 Cevaplabullet Gönderim Zamanı: 24-Haziran-2007 Saat 16:45
semihd10 folk ritimli arkadaşım essek var istersen LOL Approve
yemek için yaşama,yaşamak için ye!
IP
rmysnr
Yeni Üye
Yeni Üye
Simge

Kayıt Tarihi: 16-Haziran-2007
Konum: İstanbul
Gönderilenler: 38

Alıntı rmysnr Cevaplabullet Gönderim Zamanı: 24-Haziran-2007 Saat 20:05
arkadaşlar avril ın şarkılarından skater boy un akorunu we ritmini bilen war mıı ??
....çσк ѕєν∂ιğιм вιя уαℓαη∂ıη....
IP
garrfield__9
Yeni Üye
Yeni Üye
Simge

Kayıt Tarihi: 09-Haziran-2007
Konum: İzmir
Gönderilenler: 2

Alıntı garrfield__9 Cevaplabullet Gönderim Zamanı: 25-Haziran-2007 Saat 12:30
ya ben 4 4 lük ritimi nerden öğrenebilirim yaa Cry  önerebilceiniz yer ya da öğretebilcek bi hayırsever var mıı??
yemek için yaşama,yaşamak için ye!
IP
sulee__cezaa
Yeni Üye
Yeni Üye
Simge

Kayıt Tarihi: 22-Kasım-2006
Konum: İstanbul
Gönderilenler: 98

Alıntı sulee__cezaa Cevaplabullet Gönderim Zamanı: 26-Haziran-2007 Saat 17:42
Orjinalini yazan: semihd10

ya arkadaşlar bana acil Am-Em-E-Dm-C-G akorlarının olduğu kolay çalımlı bir parça lazım ...
 
Not - Ritmide söylerseniz sevinirim..
 
 
Kenan DoğuLu
 AM                       G             AM
İnadına yenilmeden aşık olmadan gel
  AM                       G                DM
Bu gidişin sonu kötü kalbi kaybetme gel
  DM                         C
Siyahını bırak da gel derdi sil yeter
   DM              C 
Aşka zulmedip küsmesen yeter
   G                                E
Şafağım kararır daralır geceler

    AM                        G                    AM
Yerine hiç beni koyup sarhoş oldun mu sen
  AM                        G                       DM
Kaderine boyun eğip dününe küstün mü sen
 DM                       C
Yüreğine cayır cayır kor çile saçıp
 DM                  C
Göz göre göre korku saklayıp
 G                                       E
Boğazına gömülüp sustun mu hiç

AM                DM
Kal gittiğin yerde mutlu ol
         E                    AM
Ya da gel kalbimde tahta sahip ol
   AM                                           DM
Senin gülen yüzüne kurban bu serseri kalbim
          E                                AM
Ama karar ver tutamıyorum zamanı...
 
 ( aayyay ritm olabilir )
 
Arkadaşım bu şarkıda bildiğin akorlar var..Umarım doğru olmuştur.. Haluk Levent'in birkaç şarkısını istediğin akorlarla çalabilirsin ve biraz karıştırırsan bu sitede kesin bulursun..Saygılar..
Extreme
IP
müzikolog
Yeni Üye
Yeni Üye
Simge

Kayıt Tarihi: 20-Aralık-2006
Konum: İstanbul
Gönderilenler: 18

Alıntı müzikolog Cevaplabullet Gönderim Zamanı: 27-Haziran-2007 Saat 17:09
uzun zamandır girmiyodum maili görünce yardım ediyim dedim...ApproveTongue
hala bulamadıysan umarım işine yarar rmysnr...
akorlar doğru sanıyorum değilse de çok az bi fark olur...
 
 
 
D             A
He was a boi, she was a girl
Bm            Bb
Can I make it anymore obvious.
D              A           Bm
He was a punk, she did ballet,
     C
What more can I say.
D               A
He wanted her, she'd never tell,
Bm       Bb            
secretly she wanted him aswell.
D                   A                   Bm
All of her friends, they stuck up their nose,
           C    
they had a problem with his baggy clothes.
 
CHORUS:
F               Dm                         Bb
He was a skater boi, she said see ya later boi,
          C                F
He wasn't good enough for her.
                  Dm                    Bb  
She had a pretty face, but her head was up in space,
               C                 Bb
She needed to come back down to earth.
 
D                     A          Bm 
Five years from now, she sits at home,
             Bb  
feeding the baby, she's all alone.
D              A                 Bm
She turns on T.V, guess who she sees,
            C
Skater Boi rocking up MTV.
D                 A                    Bm
She calls up her friends, they already know,
                    Bb
and they've all got tickets to see his show.
D         A                        Bm      
She tags along, and stands in the crowd,
                         C   
Looks up at the man that she turned down.
 
CHORUS:
F               Dm                         Bb
He was a skater boi, she said see ya later boi,
           C               F
He wasn't good enough for her.
                Dm                     Bb
Now he's a superstar, slammin on his guitar,
                  C                   Bb
Does your pretty face see what he's worth.  (Repeat)
 
Dm                         F                                   C
Sorry girl but you missed out, well tough luck that boi's mine now,
                            Bb                             Dm
We are more than just good friends, this is how the story ends.
                          F                               C
Too bad that you couldn't see, see the man that boi could be,
                              Bb                           
There is more than meets the eye, I see the soul that is inside.
 
D            A               Bm
He's just a boi, I'm just a girl,
               Bb
can I make it anymore obvious.
D          A                Bm
We are in love, havn't you heard,
        C
how we rock each other's world.
 
CHORUS:
F                 Dm                       Bb
I'm with a skater boi, I said see ya later boi,
             C               F
I'll be backstage after the show.
                 Dm                        Bb
I'll be in da studio, singing the song we wrote,

           C
about the girl you used to know.   (Repeat)
FoReVeR MuSiC
IP
müzikolog
Yeni Üye
Yeni Üye
Simge

Kayıt Tarihi: 20-Aralık-2006
Konum: İstanbul
Gönderilenler: 18

Alıntı müzikolog Cevaplabullet Gönderim Zamanı: 27-Haziran-2007 Saat 17:16
ya ritm de istemişsin onu nası anlatıcam bilmiyorum ama...Ermm
bu ayay metodu a' lar aşağı vuruş y'ler yukarı vuruş gibi bişey mi...
eğer öyleyse...şöyle söyleyebiliris::...
aayyay
evet sanırım böyle...Embarrassed
FoReVeR MuSiC
IP
ilkcan993
Yeni Üye
Yeni Üye
Simge

Kayıt Tarihi: 20-Haziran-2007
Konum: Kocaeli
Gönderilenler: 1

Alıntı ilkcan993 Cevaplabullet Gönderim Zamanı: 28-Haziran-2007 Saat 16:00
merhabalar cem adrian akorları arıorum hiç bi yerde bulamadım yardımcı olurmusunuz
bir kaç şarkısını yazıyorum  cem adrian-yağmur   vem adrian-sonbahar
cem adrian-ben bu şarkıyı sana yazdım
FOreVEr ROcK
IP
rock_hzl
Tecrübeli Üye
Tecrübeli Üye
Simge

Kayıt Tarihi: 14-Mayıs-2007
Konum: Eskişehir
Gönderilenler: 232

Alıntı rock_hzl Cevaplabullet Gönderim Zamanı: 29-Haziran-2007 Saat 19:26

arkadaşlar mor ve ötesinin 'dünya yalan söylüyor' parçasının tablarını bilen varsa yollayabilir mi??

IP
rmysnr
Yeni Üye
Yeni Üye
Simge

Kayıt Tarihi: 16-Haziran-2007
Konum: İstanbul
Gönderilenler: 38

Alıntı rmysnr Cevaplabullet Gönderim Zamanı: 03-Temmuz-2007 Saat 16:50

akorlar ve ritm için saol müzikolog

....çσк ѕєν∂ιğιм вιя уαℓαη∂ıη....
IP
rmysnr
Yeni Üye
Yeni Üye
Simge

Kayıt Tarihi: 16-Haziran-2007
Konum: İstanbul
Gönderilenler: 38

Alıntı rmysnr Cevaplabullet Gönderim Zamanı: 03-Temmuz-2007 Saat 16:53
acaba badem - sen ağlamanın akorlarını we arpajini bilen war mıı???
....çσк ѕєν∂ιğιм вιя уαℓαη∂ıη....
IP
gitarcışeker
Yeni Üye
Yeni Üye
Simge

Kayıt Tarihi: 02-Temmuz-2007
Konum: Elazığ
Gönderilenler: 33

Alıntı gitarcışeker Cevaplabullet Gönderim Zamanı: 03-Temmuz-2007 Saat 23:06
slm bana 3 4luk rıtımle calınan parcaları yazarmısınızzzzzzzzzzzzzzzzzzzzzzzzzz
IP
gitarcışeker
Yeni Üye
Yeni Üye
Simge

Kayıt Tarihi: 02-Temmuz-2007
Konum: Elazığ
Gönderilenler: 33

Alıntı gitarcışeker Cevaplabullet Gönderim Zamanı: 03-Temmuz-2007 Saat 23:11
arkdaslar rıtımlerı ayyaayayaa falan gıbı dııl daha anlasılır bı dılde yazın Thumbs%20Down               
IP
rock_hzl
Tecrübeli Üye
Tecrübeli Üye
Simge

Kayıt Tarihi: 14-Mayıs-2007
Konum: Eskişehir
Gönderilenler: 232

Alıntı rock_hzl Cevaplabullet Gönderim Zamanı: 03-Temmuz-2007 Saat 23:19
ayyayayay gibisinden yazmakta zor oluyo zaten en iyisi şarkıdan ritmi çıkarmak
gitar hayattır hayat güzel ;)
IP
byree
Yeni Üye
Yeni Üye
Simge

Kayıt Tarihi: 10-Mart-2008
Konum: İzmir
Gönderilenler: 10

Alıntı byree Cevaplabullet Gönderim Zamanı: 10-Mart-2008 Saat 20:38
slm arkadaslar ONUR AKIN SEVİYORUM SENİ  sarkısının ritmini yazarmısınız cook onemli benim için ve acil lasim simdiden yardimci olacak arkadaslara tesekkur ederim
IP
cruel
Yeni Üye
Yeni Üye
Simge

Kayıt Tarihi: 20-Ocak-2008
Konum: Eskişehir
Gönderilenler: 32

Alıntı cruel Cevaplabullet Gönderim Zamanı: 11-Mart-2008 Saat 17:31
E-1-s-7--7-7-7-7-7-7-7-s-5--5-5-5-s-3-3-s-1-----
B-----------------------------------------------
G-----------------------------------------------
D-----------------------------------------------
A-----------------------------------------------
E-----------------------------------------------
 
 
 
E-1-s-7--7-7-7-7-7-7-7-s-5--5-5-5-s-3-3-1--1-s-7--7-s-5-v-
B---------------------------------------------------------
G---------------------------------------------------------
D---------------------------------------------------------
A---------------------------------------------------------

E---------------------------------------------------------

IP
cruel
Yeni Üye
Yeni Üye
Simge

Kayıt Tarihi: 20-Ocak-2008
Konum: Eskişehir
Gönderilenler: 32

Alıntı cruel Cevaplabullet Gönderim Zamanı: 11-Mart-2008 Saat 17:33
E-1-s-7--7-7-7-7-7-7-7-s-5--5-5-5-s-3-3-s-1-----
B-----------------------------------------------
G-----------------------------------------------
D-----------------------------------------------
A-----------------------------------------------
E-----------------------------------------------
 
 
 
E-1-s-7--7-7-7-7-7-7-7-s-5--5-5-5-s-3-3-1--1-s-7--7-s-5-v-
B---------------------------------------------------------
G---------------------------------------------------------
D---------------------------------------------------------
A---------------------------------------------------------

E---------------------------------------------------------

emere aydın afilli yanlızlık
IP
mustafahonca
Yeni Üye
Yeni Üye


Kayıt Tarihi: 14-Kasım-2007
Gönderilenler: 13

Alıntı mustafahonca Cevaplabullet Gönderim Zamanı: 17-Mart-2008 Saat 12:34
ya kardeş bana emrah keskin zaafımsız şarkısının akoru lazım acil bi ilgilenirsen sevinirim şimdiden tşk ler
bak buda video su acil amaaaa
IP
cancancan
Yeni Üye
Yeni Üye
Simge

Kayıt Tarihi: 19-Mart-2008
Gönderilenler: 6

Alıntı cancancan Cevaplabullet Gönderim Zamanı: 23-Mart-2008 Saat 03:21
ALIN SIZE ISTEMEDIGINIZ KADAR TABB
 
 
sevdan bir ateşşş
---------------------------------------
--------------------------------------
--------------------------------------
--------------------------------------
---------------------------------------
--9-9--4-5-5-4-7-2-4--4-4-0-2---7-7-5-4


-------o-------o------------o---------o---------o-----------o----------o-----------o---------o---------o--------

Hani Benim Olcaktın ( TAB )
 
Haluk Levent
 
e[--8-7-8-----8-7-8-10-8-7---8-7-8--------     )
B[--------5------------------------5------        ) 
G[----------------------------------------        )
D[----------------------------------------        )     
A[----------------------------------------        )
E[----------------------------------------        )
                                                  )X3
                                                  )
e[----------------------------------------        )
B[-5-6-3-5-1-3-0--------------------------        )
G[----------------------------------------        )
D[----------------------------------------        )
A[----------------------------------------        )
E[----------------------------------------        )


e[--8-7-8-----8-7-8-10-8-7---8-7-8------12
B[--------5------------------------5------         
G[----------------------------------------       
D[----------------------------------------             
A[----------------------------------------       
E[----------------------------------------  

 

-------o-------o------------o---------o---------o-----------o----------o-----------o---------o---------o--------

 

 

 
Sevenler Aglarmıs ( TAB )
 
Haluk Levent
 
G-----------------|--------------------------------7-9-

D-9--7------------|-9-7--7-9-7----7------------7-9-----

A------10--10-7-7-|------------10---10-7--7-10---------

E-----------------|------------------------------------

  < 4 DEFA      

 

G-----------------|------------------------------------

D-9--7------------|-9-7--7-9-7----7-------7-5----------

A------10--10-7-7-|------------10---10-7------5-7------

E-----------------|------------------------------------

  < 4 DEFA       >

 

Bir yarim olsun isterdim ...

G----------------------------------------------------

D---------------7-------------------7-9-7------0-----

A-7-9-10-10--10---10-9--9-9-9-10--7-------10-7---7---

E----------------------------------------------------

 

 

   / Ben sevmek sevmek ister....

   |G--------------------------------------------------

 A |D--------9-9-7----7----9-9-7--------0--------------

   |A-7-9-10-------10---10-------10-9-7---9-9-9-9-10-7-

   |E--------------------------------------------------

  

Bir yarim oldu sonunda...

G-----------------------------------------------------

D---------------7-------------------7-9-7------0------

A-7-9-10-10--10---10-9--9-9-9-10--7-------10-7---7----

E-----------------------------------------------------

 


-------o-------o------------o---------o---------o-----------o----------o-----------o---------o---------o--------

 


kol dugmesı barıs manco

 

1------------------------------------------------------|
2------------------------------------------------------|
3----------------------0-0------------0-0--------------|
4--------2---------2--------3-2-0-2--------3-2-0-2-----|
5-0-2-3-----0-2-3--------------------------------------|
6------------------------------------------------------|

1------------------------------------------------------|
2------------------------------------------------------|
3--2-2-----------2-2-----------------------------------|
4-------3-2-0-2------3-2-0-2--------0-2-3-2-0----3-2-0-|
5--------------------------------3---------------------|
6------------------------------------------------------|

1------------------------------------------------------|
2------------------------------------------------------|
3------------------------------0-----------------------|
4---2-0----------3-2--0----0-0----3--2-----------------|
5--------3---3----------3------------------------------|
6------------------------------------------------------|

 

 


Büyük İnsan 
Gökhan Türkmen  
 
 
INTRO (Bm-C-Bm-C-G-D-C-Am-Bm)

E- --------------------  ----------------- 
B- --------------------  -----------------
G- --------------------  ----------------- 
D- --9---7-9-7----7----  --9----7-9-7----7 
A- 7--10-------10--10-8  7---10-------10--
E- --------------------  -----------------

E- ---------------------  -------------------------- 
B- ---------------------  --------------------------
G- --9----7-9-7----7----  --------------------------
D- ----10-------10--10-9  10-9-10-9-7----7----------
A- 7--------------------  ------------10---10-8-10-7
E- ---------------------  --------------------------

 

 

 

 


Seslendiren: Barış Manço, Teoman


e|------0-0-1-1-0---0-0-------------------------------0--|
B|---3-3----------3-----1-1-3--------------------3-3-2-3-|
G|2-2------------------------2-2-3-3-3-2-0-2--2-2--------|
D|-------------------------------------------------------|
A|--(PARTİ1)------------------------------------------(2)|
E|---------------------------------------------------KERE|


e|-------------------------------------------------------|
B|-3-2-3-2-----3-2-----3-2-3-2----3-2-------------3-2----|
G|---------3-3-----3-2---------3-3----3-2--2-2-3-3---3-2-|
D|-------------------------------------------------------|
A|-------------------------------------------------------|
E|-------------------------------------------------------|


e|-----1-0---------I-5-5-6-5-3-5-0-1-3-5P6P5-3P5P3-1P3P1-|
B|---------3-2-3/10I-------------------------------------|
G|-2-2-------------I-------------------------------------|
D|-----------------I-------------------------------------|
A|-----------------I-(PARTİ2)----------------------------|
E|-----------------I-------------------------------------|

 

e|-0P1P0---I---------------------------------------------|
B|-------3-I---P=PULL-OF SOUNDU--BU ŞARKIYA GÖRE:--------|
G|---------I---------------------------------------------|
D|---------I-------------------- TEK VURUŞLA 3 SES ------|
A|-----(2)-I-----------------------ANLAMINDADIR-----SON.-|
E|----KERE-I---------------------------------------------|

 

 

 


süper baba dizi müziği
 
3 Hurel
 
E--0-3-2-3-2-/2-2-2-2-3-5-3-/---3-2-3-5-8-7----------
B-----------------------------1----------------------
G----------------------------------------------------
D----------------------------------------------------
A----------------------------------------------------
E----------------------------------------------------
 

 

 


 
Artık Sevmeyeceğim
 
Muazzez Ersoy
 
E:-----------------------------------------------|
B:-------------------------0-1-----0-1-3-1-0-----|
G:-----0---------------0-2-----2-------------2-0-|
D:-2-3---3-2-0-2---2-3---------------------------|
A:-----------------------------------------------|
E:-----------------------------------------------|

 

E:-----------------------------------------------|
B:---0-1-0---------------------------------------|
G:-2-------2-0---------0---------------000-------|
D:-------------3---2-3---3-2-0-222-333-----333-2-|
A:-----------------------------------------------|
E:-----------------------------------------------|
 

 

 

 

 

 

 
Duydum ki Unutmuşsun
 
Muazzez Ersoy
 
Duydumki unutmussun

e|----------------|------------------|
B|----------------|------------------|
G|--3-4-3-1-------|------------------|
D|---------4-3-1--|---3-4-3-1--------|
A|----------------|-----------4-2-1--|
E|----------------|------------------|


e|-----------------|-----------------|
B|------------4-2--|-----2-----------|
G|--3-4-1-3-4------|--3-4---4-3-1-3--|
D|-----------------|-----------------|
A|-----------------|-----------------|
E|-----------------|-----------------|


e|---------------------|-------------|
B|---------------------|-------------|
G|-3-4-3-1-------------|-------------|
D|---------4-3-1-1-1/4-|---3-4-3-1---|
A|---------------------|-------------|
E|---------------------|-------------|


e|-------------------|---------------|
B|-------------------|---------------|
G|-------------------|---------------|
D|-1-2-1---------1/4-|-3-1-----------|
A|-------4-2-4-1-----|-----4-2-1-2-1-|
E|-------------------|---------------|


e|-------------------|---------------------|
B|-------------------|---------------------|
G|-------------------|---------------------|
D|-3-3/4-4-4-4-3-4-3-|-------3-4-3-1---1---|
A|-------------------|-4-2-1---------4---4-|
E|-------------------|---------------------|


e|---------------------|---------------|
B|---------------------|---------------|
G|---------------------|---------------|
D|-------------1-1-1/4-|-3-1-4---------|
A|-2-2-2-2-1-----------|-------2-1-2-1-|
E|-----------4---------|---------
 

 

 

 

 
Cöpcüler ( TAB )
 
Erkin Koray
 
 
Çöpçüler
 
Erkin Koray
 
e|5-7-5-8-7-5-3-3-5-3-7-5-3-1--------------------|
B|--------------------------------------------------------|
G|--------------------------------------------------------|

e|0-1-3-5-3-1-0--1-3--0-1-3-5-3-1-0-----------------------|
B|--------------------------------------------------------|
G|--------------------------------------------------------|
 
Çöpçüler   Erkin Koray

e ----7---8-7--------
B -10--10-----10--8~-
G -------------------+
D -------------------
A -------------------
E -------------------
   Dün gece çok aradım

e ----------7------------
B -8--10--8---10--8------
G -------------------10~-
D -----------------------
A -----------------------
E -----------------------
   Aradım bulamadım

e -------------------------------
B -------8--10--8------------8---
G -9--10-----------10--9--10-----
D -------------------------------
A -------------------------------
E -------------------------------
   Körolası çöpçüle--     eeer


e -------------------------------
B -------8--10--8----------------
G -9--10-----------10--9---------
D -------------------------------
A -------------------------------
E -------------------------------
   Aşkımı süpürmüşler 

 

 

 

 


 
Turnalar
 
Yavuz Bingöl
 
  Sen benimsin...  Bahar gözlüm
E------------------I------------------------------I
B--1---------0-1-3-I-0-----------0-1--------------I
G----2-2-2-2-------I---0-0-0-0-2-----2---0--------I
D------------------I-------------------3---3-3-2--I
A------------------I------------------------------I
E------------------I------------------------------I


    Turnalar....
E------0-----0-----0-------I    ------------------I
B--1-3---1-3---1-3---1-3-0-I    --1---------0-1-3-I
G--------------------------I 2  ----2-2-2-2-------I
D--------------------------IKEZ ------------------I
A--------------------------I    ------------------I
E--------------------------I    ------------------I


E-------------------------------------------------I
B--0-----------0-1--------------------------------I
G----0-0-0-0-2-----2---0--------------------------I
D--------------------3---3-3-2--------------------I
A-------------------------------------------------I
E-------------------------------------------------I

 

 

 


 
olmasa mektubun (tab)
 
Yeni Türkü
 
  (A)     2 KERE
EI-------------------2-2-2--2-3--0-----I
BI--3-0-0--0-1--0--0-------------------I
GI-------------------------------------I


EI-------------------------------------I
BI--1--------0-1----1-1-3--1-1-0--0----I
GI----2-2--2-----2---------------------I

 
  (B)      2 KERE
EI------------------------------------I
BI------------0-0---1-0---------------I
GI------0---2-----2-----2--0----------I
DI--4-4---4------------------4-2------I

 

EI-------------------------------------I
BI--------------------1-0--------------I
GI-----------0--2--2-------2--0-0------I
DI--2-2-4--2----------------------4--4-I
         

 

 

 


 
Hayırdır İnsallah ( TAB )
 
Yaşar
 
E-----------------------------------------------------------------------------------------
A-----------------------------------------------------------------------------------------
D------------------------------------------------7-----7---------------7-5-------7-5-4-2--
G----7-5-7-----7-----7-5-4-7-5-4-5-7-7-5---7-5-4---5-4---4-5-5-4-7-5-4-----5-5-4----------
B--5-------5-5---6-5---------------------5------------------------------------------------
e-----------------------------------------------------------------------------------------

-------------------o--------o------------------o-----------------o-----------------o-------------------o----------

 

 

 

 


  HİT 1036    
 
Büyük İnsan 
Gökhan Türkmen  
 
 
INTRO (Bm-C-Bm-C-G-D-C-Am-Bm)

E- --------------------  ----------------- 
B- --------------------  -----------------
G- --------------------  ----------------- 
D- --9---7-9-7----7----  --9----7-9-7----7 
A- 7--10-------10--10-8  7---10-------10--
E- --------------------  -----------------

E- ---------------------  -------------------------- 
B- ---------------------  --------------------------
G- --9----7-9-7----7----  --------------------------
D- ----10-------10--10-9  10-9-10-9-7----7----------
A- 7--------------------  ------------10---10-8-10-7
E- ---------------------  --------------------------

 

 

Em          D                    Em
At savur at sevdayı bir yere fırlat
           D                  Em
Bitti sayıp acıyı kaldır öyle at...
Em          D                 Em   
Sor herkese sor acılar unutuluyor
         D                   Em      
Ağlayınca gözlerinden silinmiyor
          D                 Em
Aşk her defasında bak bulunuyor
           D                G 
Bırakırım zamanı öyle biraz da
        D                      G  
Sen olmadan da yine geçer nasılsa
             D            Am 
Hatırla bunları sakın unutma
          D    
Diyordun ama o zaman gülüyordun
C           Am           D                    B
Yanımdaydın canımdaydın şimdi nasıl geçer bu ömür


Bm             C
Susma söyle nasıl yaşar böyle insan
Bm             C
Susma konuş hadi anlat büyük insan
G                D
Söyle bir aşk mı çare olurdu zaman mı
Am               Bm
Böyle kaldırıp  atardık ya sevdayı
Bm             C      
Susma söyle nasıl yapar bunu insan
Bm            C 
Susma nasıldı anlat hadi ayrılırsam
G              D
Söyle hayat mı çare bulurdu kendin mi
Am             Bm
Böyle büyük aşklar böyle mi biterdi

 


E- --------------------  ----------------- 
B- --------------------  -----------------
G- --------------------  ----------------- 
D- --9---7-9-7----7----  --9----7-9-7----7 
A- 7--10-------10--10-8  7---10-------10--
E- --------------------  -----------------

E- ---------------------  -------------------------- 
B- ---------------------  --------------------------
G- --9----7-9-7----7----  --------------------------
D- ----10-------10--10-9  10-9-10-9-7----7----------
A- 7--------------------  ------------10---10-8-10-7
E- ---------------------  --------------------------

 

 


Em          D                    Em
At silip at aşkları bir yere fırlat
             D                  Em
Bitti say ki derdini kaldır öyle att...
Em          D                 Em 
Sor ne olur sor sen benden ayrılırsan
            D                 Em 
Ne olur düşümde bir ömrü durdursan
           D                 Em 
Aşk her defasında bende ararsan
          D                  G
Bırakırım kendimi öyle biraz da
         D                     G
Sen olmadan da ben yaşarım nasılsa
            D            Am
Hatırla bunları sakın unutma
          D
Diyordun ama o zaman gülüyordun
C           Am           D                    B
Yanımdaydın canımdaydın şimdi nasıl geçer bu ömür

 

Bm             C
Susma söyle nasıl yaşar böyle insan
Bm             C
Susma konuş hadi anlat büyük insan
G                D
Söyle bir aşk mı çare olurdu zaman mı
Am               Bm
Böyle kaldırıp  atardık ya sevdayı
Bm             C      
Susma söyle nasıl yapar bunu insan
Bm            C 
Susma nasıldı anlat hadi ayrılırsam
G              D
Söyle hayat mı çare bulurdu kendin mi
Am             Bm
Böyle büyük aşklar böyle mi biterdi


E- --------------------  ----------------- 
B- --------------------  -----------------
G- --------------------  ----------------- 
D- --9---7-9-7----7----  --9----7-9-7----7 
A- 7--10-------10--10-8  7---10-------10--
E- --------------------  -----------------

E- ---------------------  -------------------------- 
B- ---------------------  --------------------------
G- --9----7-9-7----7----  --------------------------
D- ----10-------10--10-9  10-9-10-9-7----7----------
A- 7--------------------  ------------10---10-8-10-7
E- ---------------------  --------------------------
 

 

 

 

 

 

 

 

 

 

 

 

Fikret kızılok - GÖNÜL
arpej intro:

     Bm                         Am            Bm                                  
E||-----------2---------------------------||-----------2-----------------2--------|
B||--------3-----3-----------3--------1---||--------3-----3-----------3-----3-----|
G||-----4-----------4-----4--------2-----*||-----4-----------4-----4-----------4--|
D||--------------------------------------*||--------------------------------------|
A||--2-----------------2--------0---------||--2-----------------2-----------------|
E||---------------------------------------||--------------------------------------|


  Am                                     C                                   
-----------0-----------------0--------|-----------0-----------------0--------|
--------1-----1-----------1-----1-----|--------1-----1-----------1-----1-----|
-----2-----------2-----2-----------2--|-----0-----------0-----0-----------0--|
--------------------------------------|--------------------------------------|
--0-----------------0-----------------|--3-----------------3-----------------|
--------------------------------------|--------------------------------------|


  Bm                                     Am                                  
-----------2-----------------2--------|-----------0-----------------0--------|
--------3-----3-----------3-----3-----|--------1-----1-----------1-----1-----|
-----4-----------4-----4-----------4--|-----2-----------2-----2-----------2--|
--------------------------------------|--------------------------------------|
--2-----------------2-----------------|--0-----------------0-----------------|
--------------------------------------|--------------------------------------|


  C                                      Bm                Am                
-----------0-----------------0--------|-----------2-----------------0--------|
--------1-----1-----------1-----1-----|--------3-----3-----------1-----1-----|
-----0-----------0-----0-----------0--|-----4-----------4-----2-----------2--|
--------------------------------------|--------------------------------------|
--3-----------------3-----------------|--2-----------------0-----------------|
--------------------------------------|--------------------------------------|


    Bm                                    
|------------2---------------------------||
|---------3-----3-----------3--------1---||
|*-----4-----------4-----4--------2-----*||
|*--------------------------------------*||
|---2-----------------2--------0---------||
|----------------------------------------||

 

                                  Islık İntro:
E||------------------------------||--7------------2h-----2--2--3--|--5------------0h-----0----2--|
B||--0------------0----------0---||-------------------------------|------------------------------|
G||----------------------2------*||-------------------------------|------------------------------|
D||-----------------------------*||-------------------------------|------------------------------|
A||------------------------------||-------------------------------|------------------------------|
E||------------------------------||-------------------------------|------------------------------|


                                                                                   
--3----2----0---------0----3----|--2----------------|--5------------0------0----2--|
-----------------3--------------|-------------------|------------------------------|
--------------------------------|-------------------|------------------------------|
--------------------------------|-------------------|------------------------------|
--------------------------------|-------------------|------------------------------|
--------------------------------|-------------------|------------------------------|


                                                                                     
--3-------------------------|--------------------------------||---------------------||
---------------1------------|--3----1----0---------0----1----||---0-----------------||
----------------------------|-----------------2--------------||*-------------------*||
----------------------------|--------------------------------||*-------------------*||
----------------------------|--------------------------------||---------------------||
----------------------------|--------------------------------||---------------------||

 

 

 

 

 


Saman YOlu 
Berkant  
 
 
Sen kalbimin....          Sen ruhumun....
E--------------------------------------------------I
B-1-3-1-0-1-0-1---0---0----1-3-1-0-1-0-1---0---0---I
G---------------2---2---0----------------2---2---0-I
D--------------------------------------------------I


  Bir sarkisin sen....     Dudaklarimdan....
E--------------------------------------------------I
B------------1-3-1-0----0----0-------0-1-----------I
G-0-2-0--------------0-2---2---2-0-------2-0---0---I
D-------3-2------------------------3---------3---2-I
 

 

 

 


Affet 
Grup 84  
 
 
E---------------------------------
B----3--5-6-5--3-2---2-3-2--------
G-----------------3---------3-2-2-
D---------------------------------
A---------------------------------
E---------------------------------
 
  Dm             Bb         Dm
 Oof  yine  kapalı  tüm   kapılar

(sözden sonra ara kısımda bu şekil bir arpej var)
E------0------0------0------0-----
B----3------3------3------3-------
G--2------2------2------2---------
D---------------------------------
A---------------------------------
E---------------------------------


E---------------------------------
B----3--5-6-5--3-2---2-3-2---------
G--2--------------3---------3-2-2-
D---------------------------------
A---------------------------------
E---------------------------------
 
  Dm                Bb      Dm
  Sor  beni   en   uzak  meyhaneye


E------0------0------0------0-----
B----3------3------3------3-------
G--2------2------2------2---------
D---------------------------------
A---------------------------------
E---------------------------------

(sonraki söz kımında arpeje devam ediliyor)

Bb               Dm
Sorda al cevabı varmıymış başkası
Bb             Dm
Sahibi olsun yüreciğimin
Bb              Dm
Hatam var elbet ama asla büyük aşk
Bb           Dm
Ezdirmez kendini ezilmez

E---------------------------------
B----3--5-6-5--3-2---2-3-2--------
G--2--------------3---------3-2-2-
D---------------------------------
A---------------------------------
E---------------------------------

Dm               Bb           Dm     
Affet ne olur bu saf deli yüreğimi

E------0------0------0------0-----
B----3------3------3------3-------
G--2------2------2------2---------
D---------------------------------
A---------------------------------
E---------------------------------
(ara kısımda yine aynı arpej var.)

E---------------------------------
B----3--5-6-5--3-2---2-3-2---------
G--2--------------3---------3-2-2-
D---------------------------------
A---------------------------------
E---------------------------------
Dm             Bb           Dm       
Ağla ağlaki sula kurak bedenimi

E------0------0------0------0-----
B----3------3------3------3-------
G--2------2------2------2---------
D---------------------------------
A---------------------------------
E---------------------------------

(nakarat kısmının diğer kısımlarında arpej devam

 ediyor zannediyorum şu an zaten aklımdan yazıyorum)

Bb               Dm                  
Olmadımki senden başkasıyla asla    
Bb           Dm                      
Kastınmı var söyle bu cana           

Bb                     Dm
Olmadımı kalamadınmı yanımda
Bb                     Dm
Sensiz bir hiçmişim ben aslında
Bb                     Dm
Hadi gel gel kurtar kanımda
Bb                     Dm
Sıcaklığın hep benimle yanımda


 

Veda Busesi 
Sanat Müziği  
 
 
e:12-7-8-10-8-7/10-7-7-8-5-3/3-5-3-7-5-3/8-7-5/3-5-1-5-3-5-1-5

 


e:0-1-0-8-7-5-3-5-1-0
 

 

 

 

Vaz Geçtim 
Sezen Aksu  
 
 
E:5-7-5-8-8-7-5-3-1-3-1-3-7-7-5-3-1-0-1-5-3-1-0/

E:12-12-10-12-13-12-10-10-15-13-12-10-8-8-7-8-10-8-7-7-10-7-5-10-8-/7-5-3-1-0
 

 

 

 


  HİT 845    
 
Aldanırım Tab 
Yaşar  
 
 
     Am          F    Am                F     Am
  
e|-0------0-----1-----0-----0-----0-----1-----0------------|
B|-----1------1-----1-----1-----1-----1-----1--------------|
G|---2------2-----2-----2-----2-----2-----2----------------|
D|---------------------------------------------------------|
A|---------------------------------------------------------|
E|---------------------------------------------------------|


e|---------------------------------------------------------|
B|---------------------------------------------------------|
G|---------------------------------------------------------|
D|-10--9-7--9--7-5--7--5-3--2--10--9-7--9--7-5--7--5-3-----|
A|---------------------------------------------------------|
E|---------------------------------------------------------|
       sl      sl      sl          sl      sl      sl

e|---------------------------------------------------------|
B|---------------------------------------------------------|
G|---------------------------------------------------------|
D|-5-7-10-9-9-9-7-5-3--3-5-7-5-3-5-2-----------------------|
A|---------------------------------------------------------|
E|---------------------------------------------------------|
        p       sl                 vib.

  Hatırlarım "hiç gidemem" deyişini...

D|-5-3-2---------------------------------------------------|
A|---------------------------------------------------------|
E|---------------------------------------------------------|
       vib.

  Hatırlarım "erken ölürüm" deyişini...

D|-5-7-9-10------------------------------------------------|
A|---------------------------------------------------------|
E|---------------------------------------------------------|

 

     p       Pull of
     sl      Slide
     vib.    Vibrato

 

 

Kum Gibi 
Ahmet Kaya  
 
 
e------------------------------------
B-3--3--3--3--5--6--6--5--6--5--3--2-
Martılar  ağl....


e------------------------------------------
B-5--3--2----5--3--2----6--5--3--2---------
G-------------------------------------3----
Dün gibi         dün gib        ezip......

e-----------------------------------------
B-----------------------------------------
G-3--3--3--3--6--7--7--7--6--7--6--3------
Bırakta dolanayım ayak......


e-----------------------------------------
B-----------------------------------------
G-7--6--3-----7--6--3---9--7--6--3--2-----
Kum gibi         kum gibi      ezi......
 

 

Caddelerde Rüzgar 
Anonim  
 
 
E]-0-0-0-0-0-1-0---0-0-0-5-0------------------------------------------------------------------------------------0----------------------
B]-----------------------------------3-3-3-3-5-3----3-3-3-5-3----1-1-1-1-3-1-1-1-3-1-----0-0-0-0-1-0-----------3-1-0-------------
G]----------------------------------------------------------------------------------------------------------------------------------2------
D]-----------------------------------------------------------------------------------------------------------------------------------------
A]-----------------------------------------------------------------------------------------------------------------------------------------
E]-----------------------------------------------------------------------------------------------------------------------------------------
 

 

Hatırla Sevgili 
Anonim  
 
 
|:Dm                                        A7
E|------|------|------|------|------|------|------|------|
B|------|------|------|------|------|------|------|------|
G|----2-|0-----|2-----|------|----2-|0-----|------|------|
D|0-3---|----3-|------|------|0-3---|----3-|2-----|------|

                                            Dm          :|
E|------|------|------|------|------|------|------|------|
B|------|------|------|------|------|------|------|------|
G|----0-|------|0-----|3-----|2-----|0-----|------|------|
D|2-3---|3---2-|------|------|--2-3-|--3-2-|0-----|------|

|:A7            Dm            Gm            Dm
E|----0-|------|------|------|------|------|------|------|
B|2-3---|2-----|------|------|------|------|------|------|
G|------|----3-|2-----|------|3---3-|2-0---|2-----|------|
D|------|------|------|------|------|----3-|------|------|

  Gm            Dm            A7            Dm          :|
E|------|------|------|------|------|------|------|------|
B|------|------|------|------|------|------|------|------|
G|3---3-|2-0---|2---0-|------|----0-|------|------|------|

 

 

 


alev alev

 

e---------------0--------I-------------------0---------
B-0-0-1-3-0-1-3---1------I-0-0-1-3-0-0-1-3-3---3-1-3-5-
G------------------------I-----------------------------
 Alev alev yandigim dogru  Küllerimden dogarmiyim ...

e--------------------------------------I--------------I
B-5-5-7-8-7-5-7-8--5-7-8-7-5-7-3-5-3---I--1-3-1-------I
G--------------------------------------I--------------I
    Kendimi ariyorken olmaktan ...       SENDEYIM
 
e--------------------I--------------------------------I
B-1-0-1-0-1-3-1-0-5--I-1-0-1-3-3-5-7-7-5--------------I
G--------------------I--------------------------------I
 Al beni neyaparsan     al beni ne yaparsan yaaap!..

e--------------------I--------------------------------I
B-1-0-1-0-1-3-1-0-5--I-1-0-1-0-1-3-1-0----------------I
G--------------------I--------------------------------I
 Al beni ne yaparsan    al beni ne yaparsan yap!...

 


göktan-sen intro

E--3-2-3-5-3-2-3-2-0-3-2-3-5-3-2-3-2-0-2-2-3-5-3-2-0----0
B-------------------------------------------------------------------4---

IP
Guests
Misafir
Misafir

Alıntı Guests Cevaplabullet Gönderim Zamanı: 12-Temmuz-2012 Saat 09:52

replica designer handbags

wrought testimony has made the jury and court observers cry, their claims highlight the subtle psychological warfare sexual abusers wage wage knock off christian louboutin wage on their victims to keep them from speaking out, experts said."He made me feel like I was a part part replica designer handbags part of a family," said a man identified as Victim who testified Thursday. "He gave me things that I had had cheap louboutins had never had before."The eight victims who have told the Sandusky showered them with gifts such as golf clubs, watches watches knock off christian louboutin watches and chances to attend Penn State football games and players. Several have testified that they liked Sandusky and didn't didn't cheap louboutins didn't want the activities and attention to stop. One even he loved Sandusky."I didn't want my parents to keep me me replica christian louboutin me from going to the games. It felt like something would get mad about," testified a man identified as Victim Victim replica designer handbags Victim 7. "I tried to focus on the positives."Feelings of and fear haunted the victims for years after the abuse abuse designer replica handbags abuse ended. But only one man said Sandusky threatened him to reveal the abuse. Others kept their secrets willingly, and and cheap louboutins and many had to be coaxed by police to tell stories when the scandal erupted in 2011."I was scared. I I designer replica handbags I didn't want to tell anyone regardless," said one man
IP
Guests
Misafir
Misafir

Alıntı Guests Cevaplabullet Gönderim Zamanı: 06-Eylül-2012 Saat 10:45

cheap polo ralph lauren

he said.Fugate warned that Isaac's biggest punch may land in or Mississippi. The National Hurricane Center said to expect a a jordan 12 palyoffs a storm surge of at least six feet with the it could reach up to 12 feet.Alabama and Mississippi have have

cheap replica handbags

IP
Candace Flynn
Yeni Üye
Yeni Üye
Simge

Kayıt Tarihi: 02-Ekim-2013
Gönderilenler: 1

Alıntı Candace Flynn Cevaplabullet Gönderim Zamanı: 02-Ekim-2013 Saat 21:48
bunun vuruşları nasıl? ritimleri yani hani bas çek gibi yardım ederseniz çok sevinirim

Intro:

F C Am G

e:-----3--------------------------|
B:-0-1----------------------------|
G:--------------------------------| ayrıca bunlar da ne
D:--------------------------------| demek?
A:--------------------------------|
E:--------------------------------|

(Play this after you play G)

Verse 1:
F    C                   Am              G
Perry,you know you are a boys best friend
                      F            C
Your more than just a passing trend
                            Am     G
Your like a treat from the candy store
   F    C                      Am        G
Oh Perry,we love you more than ice cream cakes
                      F              C
We love you more than bugs and snakes
                      Am                   G
We love you more than all things mentioned from before
   F   C               Am       G
Oh Perry,Your extraordinary
                      F   C
Your kinda short and hairy
                   Am G
The color of a blueberry,Yes Perry

Course:
   F        C     Am        G          F
So come home Perry,Come home perry,Come home
Verse 2:
   F    C                    Am G
Oh perry,I think its kinda scary
                      F   C
I can't find you any werey
                   Am   G
It fills me with dispary
    F   C               Am   G
Oh Perry,Im alergic to dairy
                      F   C
Im gonna move to the Praire
                      Am G
And change my name to Larry
                      G
She change her name to Larry

(Chourse 2x)

End:
Am        G          F
Come home Perry,Come home
"You are so busted!"
— Candace's catchphrase
IP
<< Önceki Sayfa   6
Yanıt Yaz Yeni Konu Gönder & Sent New Topic
Konuyu Yazdır Konuyu Yazdır

Forum Atla
Kapalı Foruma Yeni Konu Gönderme
Kapalı Forumdaki Konulara Cevap Yazma
Kapalı Forumda Cevapları Silme
Kapalı Forumdaki Cevapları Düzenleme
Kapalı Forumda Anket Açma
Kapalı Forumda Anketlerde Oy Kullanma

Bulletin Board Software by Web Wiz Forums version 8.04
Copyright ©2001-2006 Web Wiz Guide