www.twitter.com/gitaristancom
  Aktif Konular & ACTIVE TOPICSAktif Konular & ACTIVE TOPICS  Forum Üyelerini GösterÜye Listesi & MEMBERLIST  Takvim & CALENDARTakvim & CALENDAR  Forumu AraArama & SEARCH  Yardım & HELPYardım & HELP  Kayıt Ol & REGISTERKayıt Ol & REGISTER  Giriş & LOGINGiriş & LOGIN
 
  a
 
 

 


Gitaristan AKOR&TAB Arşivi
www.gitaristan.com/akorlar

Gitaristan VideoGitar
www.gitaristan.com/video

Türkçe GuitarPro Arşivi
www.gitaristan.com/guitarpro

Online Gitar Okulu
www.gitaristan.com/okul  

 

 

 

 

Tablar
 Gitaristan.Com - Online Gitar Okulu - Guitar Forum | Paylaşım | AKORLAR NOTALAR TABLAR RİTMLER REPARTUAR | Tablar
Mesaj icon Konu: kolay tab verecek var mı???????? Yanıt Yaz Yeni Konu Gönder & Sent New Topic
Yazar Mesaj
bah190
Yeni Üye
Yeni Üye
Simge

Kayıt Tarihi: 21-Aralık-2007
Konum: Ankara
Gönderilenler: 70

Alıntı bah190 Cevaplabullet Konu: kolay tab verecek var mı????????
    Gönderim Zamanı: 14-Şubat-2008 Saat 22:00
bana kolay çalınabilecek tablar verebilirmisiniz
IP
cadoo
Yeni Üye
Yeni Üye
Simge

Kayıt Tarihi: 03-Şubat-2008
Gönderilenler: 5

Alıntı cadoo Cevaplabullet Gönderim Zamanı: 17-Şubat-2008 Saat 10:46
en kolay tab bana bir masal anlat baba bunla baslayablrsn
B|-0----3-----2-3-2--

B|-2-2-2-2-3--5--3--2---0-------

B|--0-0-0-0---2---3-2----0----3--
IP
cancancan
Yeni Üye
Yeni Üye
Simge

Kayıt Tarihi: 19-Mart-2008
Gönderilenler: 6

Alıntı cancancan Cevaplabullet Gönderim Zamanı: 18-Nisan-2008 Saat 01:48

Tarkan / Asla Vazgeçemem 
 
 
e|---------------------------------------------------------|
B|----1--1-1-0-0---------1-0---0-0-------------0-----------|
G|---------------2-2-0-2-----------2-2-0-0---0---2---------|
D|--2--------------------------------------3---------------|
A|---------------------------------------------------------|
E|---------------------------------------------------------|

e|---------------------------------------------------------|
B|----0-1----------0-1-------------------------------------|
G|--2-------0-2--2---------0-------------------------------|
D|--------3------------2-3---------------------------------|
A|---------------------------------------------------------|
E|---------------------------------------------------------|
 

IP
cancancan
Yeni Üye
Yeni Üye
Simge

Kayıt Tarihi: 19-Mart-2008
Gönderilenler: 6

Alıntı cancancan Cevaplabullet Gönderim Zamanı: 18-Nisan-2008 Saat 02:19
sana en kolay tabı vereyım benım gıtara basladıgım tab bana cok kolay gelmişti inş begenırsın;)
 
Saman YOlu 
 
 
Sen kalbimin....          Sen ruhumun....
E--------------------------------------------------I
B-1-3-1-0-1-0-1---0---0----1-3-1-0-1-0-1---0---0---I
G---------------2---2---0----------------2---2---0-I
D--------------------------------------------------I

  Bir sarkisin sen....     Dudaklarimdan....
E--------------------------------------------------I
B------------1-3-1-0----0----0-------0-1-----------I
G-0-2-0--------------0-2---2---2-0-------2-0---0---I
D-------3-2------------------------3---------3---2-I
 
 
 
IP
1231234
Yeni Üye
Yeni Üye
Simge

Kayıt Tarihi: 19-Mart-2009
Gönderilenler: 2

Alıntı 1231234 Cevaplabullet Gönderim Zamanı: 22-Mart-2009 Saat 23:08

Godfather

e ---------0--3--2--0--3--0--2--0----------------------          
b ----0---------------------------------1--3--0----------
 
Hatırla sevgili
e -------------0---------0--------------0---------------------------------
b --------1-------3--1------------1-------3--1--0-----------------------
g ---2--------------------------2-------------------------------------------


e ----------------------------1---0------------------------------------
b ----0--1--3--1---0--3-----------0--1---3---1---0----------
g ----------------------------------------------------------2----


IP
AniLLL
Yeni Üye
Yeni Üye
Simge

Kayıt Tarihi: 17-Ağustos-2010
Konum: Kocaeli
Gönderilenler: 1

Alıntı AniLLL Cevaplabullet Gönderim Zamanı: 23-Eylül-2010 Saat 16:50
Godfatherin gerceği o deil tarihçe tabını biliorum onların hepsi yalan ve godfather öle kolaya almamak da lazım
IP
cevik_678
Yeni Üye
Yeni Üye


Kayıt Tarihi: 06-Ocak-2011
Gönderilenler: 1

Alıntı cevik_678 Cevaplabullet Gönderim Zamanı: 18-Temmuz-2011 Saat 10:17
Anıl dostum senin gerçeğini bilmemiz için bildiğin şeyi bizlere sunman gerekir. Bu şekilde eleştiriler ile sadece kendini yalancı çıkarmış olursun. Madem doğrusunu biliyorsun buyur bilgilerini paylaş bizlerle. :)

Duman Grubunun ''Bu Akşam'' adlı şarkısı gayet hoş ve basit. :)


e|----2-0---0-----0-----2-0---0-----00-|
B|--0-----3---2-3---2-0-----3---2-3----|

e|----2-0---0-----0--------------------|
B|--0-----3---2-3---2-0---3-2-0-3-2-00-|

e|---54545454545h7-5454545--10-9-7-----|
B|-0-----------------------------------|

e|---54545454545p4-2---2-0---0---------|
B|-0-----------------------3---2-0-0---|
IP
fungsclup
Yeni Üye
Yeni Üye
Simge

Kayıt Tarihi: 10-Ekim-2011
Konum: İstanbul
Gönderilenler: 2

Alıntı fungsclup Cevaplabullet Gönderim Zamanı: 17-Ekim-2011 Saat 21:58
Ben neden beceremiyorum ya tab olayını falan araştırdım da


B|-0----3-----2-3-2--

B|-2-2-2-2-3--5--3--2---0-------

B|--0-0-0-0---2---3-2----0----3--

şimdi bunu çalmak istiyorum

B telinde önce düz basıyorum sonra hemen ardından 3. perdeye mi bascam? trelerin anlamı nedir?

Ard arda B B B denmiş mesela , ben napıcam bunlarda? üstteki bitince hemen alttakinden mi gircem?
IP
Acemi_Gitarist1
Yeni Üye
Yeni Üye
Simge

Kayıt Tarihi: 13-Nisan-2012
Gönderilenler: 2

Alıntı Acemi_Gitarist1 Cevaplabullet Gönderim Zamanı: 05-Mayıs-2012 Saat 13:45
b demek 2. tel demek alttan 2. telde ilk 0 sonra 2ç perdeye 4 kere çalacaksın sonra 4 kere boş vuracaksın.
IP
Yanıt Yaz Yeni Konu Gönder & Sent New Topic
Konuyu Yazdır Konuyu Yazdır

Forum Atla
Kapalı Foruma Yeni Konu Gönderme
Kapalı Forumdaki Konulara Cevap Yazma
Kapalı Forumda Cevapları Silme
Kapalı Forumdaki Cevapları Düzenleme
Kapalı Forumda Anket Açma
Kapalı Forumda Anketlerde Oy Kullanma

Bulletin Board Software by Web Wiz Forums version 8.04
Copyright ©2001-2006 Web Wiz Guide